0
SECTION
2
HEADER
9
$ACADVER
1
AC1012
9
$EXTMIN
10
10.850000
20
16.500000
30
0.0
9
$EXTMAX
10
18.010000
20
22.570000
30
0.0
9
$LIMMIN
10
275.590000
20
419.100000
9
$LIMMAX
10
457.454000
20
573.278000
9
$DIMSCALE
40
1.000000
9
$PDMODE
70
2
9
$PDSIZE
40
0.0
  9
$HANDSEED
  5
6b7
0
ENDSEC
0
SECTION
2
CLASSES
0
ENDSEC
0
SECTION
2
TABLES
0
TABLE
2
LTYPE
5
1e
100
AcDbSymbolTable
70
12
0
LTYPE
5
1f
100
AcDbSymbolTableRecord
100
AcDbLinetypeTableRecord
2
BYBLOCK
70
0
3

72
65
73
0
40
0.0
0
LTYPE
5
20
100
AcDbSymbolTableRecord
100
AcDbLinetypeTableRecord
2
BYLAYER
70
0
3

72
65
73
0
40
0.0
0
LTYPE
5
21
100
AcDbSymbolTableRecord
100
AcDbLinetypeTableRecord
2
CONTINUOUS
70
64
3
Solid line
72
65
73
0
40
0.0
0
LTYPE
5
22
100
AcDbSymbolTableRecord
100
AcDbLinetypeTableRecord
2
DASHED
70
64
3
__ __ __ __ __ __ __ __ __ __ __ __ __ __ __
72
65
73
2
40
0.75
49
0.5
74
0
49
-0.25
74
0
0
LTYPE
5
23
100
AcDbSymbolTableRecord
100
AcDbLinetypeTableRecord
2
DOT
70
64
3
...............................................
72
65
73
2
40
0.25
49
0.0
74
0
49
-0.25
74
0
0
LTYPE
5
24
100
AcDbSymbolTableRecord
100
AcDbLinetypeTableRecord
2
DASHDOT
70
64
3
__ . __ . __ . __ . __ . __ . __ . __ . __ . --
72
65
73
4
40
1.0
49
0.5
74
0
49
-0.25
74
0
49
0.0
74
0
49
-0.25
74
0
0
LTYPE
5
25
100
AcDbSymbolTableRecord
100
AcDbLinetypeTableRecord
2
CENTER
70
64
3
____ _ ____ _ ____ _ ____ _ ____ _ ____ _ ____
72
65
73
4
40
2.0
49
1.25
74
0
49
-0.25
74
0
49
0.25
74
0
49
-0.25
74
0
0
LTYPE
5
26
100
AcDbSymbolTableRecord
100
AcDbLinetypeTableRecord
2
PHANTOM
70
64
3
_____ _ _ _____ _ _ _____ _ _ _____ _ _ ____
72
65
73
6
40
2.5
49
1.25
74
0
49
-0.25
74
0
49
0.25
74
0
49
-0.25
74
0
49
0.25
74
0
49
-0.25
74
0
0
LTYPE
5
27
100
AcDbSymbolTableRecord
100
AcDbLinetypeTableRecord
2
HIDDEN
70
64
3
_ _ _ _ _ _ _ _ _ _ _ _ _ _ _ _ _ _ _ _ _ _ _
72
65
73
2
40
0.375
49
0.25
74
0
49
-0.125
74
0
0
LTYPE
5
28
100
AcDbSymbolTableRecord
100
AcDbLinetypeTableRecord
2
BORDER
70
64
3
__ __ . __ __ . __ __ . __ __ . __ __ . __ __
72
65
73
6
40
1.75
49
0.5
74
0
49
-0.25
74
0
49
0.5
74
0
49
-0.25
74
0
49
0.0
74
0
49
-0.25
74
0
0
LTYPE
5
29
100
AcDbSymbolTableRecord
100
AcDbLinetypeTableRecord
2
DIVIDE
70
64
3
__ . . __ . . __ . . __ . . __ . . __ . . __
72
65
73
6
40
1.25
49
0.5
74
0
49
-0.25
74
0
49
0.0
74
0
49
-0.25
74
0
49
0.0
74
0
49
-0.25
74
0
0
LTYPE
5
2a
100
AcDbSymbolTableRecord
100
AcDbLinetypeTableRecord
2
DOT2
70
64
3
...............................................
72
65
73
2
40
0.125
49
0.0
74
0
49
-0.125
74
0
0
ENDTAB
0
TABLE
2
STYLE
5
2b
100
AcDbSymbolTable
70
1
0
STYLE
5
2c
100
AcDbSymbolTableRecord
100
AcDbTextStyleTableRecord
2
STANDARD
70
64
40
0.0
41
1.0
50
0.0
71
0
42
5.0
3
txt
4
bigfont
0
ENDTAB
0
TABLE
2
LAYER
5
2d
100
AcDbSymbolTable
70
1
0
LAYER
5
2e
100
AcDbSymbolTableRecord
100
AcDbLayerTableRecord
2
0
70
0
62
7
6
CONTINUOUS
0
ENDTAB
0
TABLE
2
APPID
5
2f
100
AcDbSymbolTable
70
1
0
APPID
5
30
100
AcDbSymbolTableRecord
100
AcDbRegAppTableRecord
2
ACAD
70
64
0
ENDTAB
0
TABLE
2
DIMSTYLE
5
31
100
AcDbSymbolTable
70
0
0
ENDTAB
0
TABLE
2
UCS
5
32
100
AcDbSymbolTable
70
0
0
ENDTAB
0
TABLE
2
VIEW
5
33
100
AcDbSymbolTable
70
0
0
ENDTAB
0
TABLE
2
VPORT
5
34
100
AcDbSymbolTable
70
0
0
ENDTAB
0
TABLE
2
BLOCK_RECORD
5
35
100
AcDbSymbolTable
70
0
0
BLOCK_RECORD
5
36
100
AcDbSymbolTableRecord
100
AcDbBlockTableRecord
2
*MODEL_SPACE
0
BLOCK_RECORD
5
37
100
AcDbSymbolTableRecord
100
AcDbBlockTableRecord
2
*PAPER_SPACE
0
BLOCK_RECORD
5
38
100
AcDbSymbolTableRecord
100
AcDbBlockTableRecord
2
OPEN
0
BLOCK_RECORD
5
39
100
AcDbSymbolTableRecord
100
AcDbBlockTableRecord
2
HALF
0
BLOCK_RECORD
5
3a
100
AcDbSymbolTableRecord
100
AcDbBlockTableRecord
2
CLOSEDBLANK
0
BLOCK_RECORD
5
3b
100
AcDbSymbolTableRecord
100
AcDbBlockTableRecord
2
HALFCLOSE_R
0
BLOCK_RECORD
5
3c
100
AcDbSymbolTableRecord
100
AcDbBlockTableRecord
2
DOT
0
BLOCK_RECORD
5
3d
100
AcDbSymbolTableRecord
100
AcDbBlockTableRecord
2
HALFOPEN_R
0
BLOCK_RECORD
5
3e
100
AcDbSymbolTableRecord
100
AcDbBlockTableRecord
2
CLOSEDF
0
BLOCK_RECORD
5
3f
100
AcDbSymbolTableRecord
100
AcDbBlockTableRecord
2
HALF_R
0
ENDTAB
0
ENDSEC
0
SECTION
2
BLOCKS
0
BLOCK
5
40
100
AcDbEntity
8
0
100
AcDbBlockBegin
2
*MODEL_SPACE
70
0
10
0.0
20
0.0
30
0.0
3
*MODEL_SPACE
1

0
ENDBLK
5
41
100
AcDbEntity
8
0
100
AcDbBlockEnd
0
BLOCK
5
42
100
AcDbEntity
67
1
8
0
100
AcDbBlockBegin
2
*PAPER_SPACE
70
0
10
0.0
20
0.0
30
0.0
3
*PAPER_SPACE
1

0
ENDBLK
5
43
100
AcDbEntity
67
1
8
0
100
AcDbBlockEnd
0
BLOCK
5
44
100
AcDbEntity
8
0
100
AcDbBlockBegin
2
OPEN
70
0
10
0.0
20
0.0
30
0.0
3
OPEN
1

0
LINE
5
45
100
AcDbEntity
8
0
6
BYBLOCK
62
0
100
AcDbLine
10
0.000000
20
0.000000
11
-1.000000
21
0.000000
0
LINE
5
46
100
AcDbEntity
8
0
6
BYBLOCK
62
0
100
AcDbLine
10
-1.000000
20
-0.166667
11
0.000000
21
0.000000
0
LINE
5
47
100
AcDbEntity
8
0
6
BYBLOCK
62
0
100
AcDbLine
10
-1.000000
20
0.166667
11
0.000000
21
0.000000
0
ENDBLK
5
48
100
AcDbEntity
8
0
100
AcDbBlockEnd
0
BLOCK
5
49
100
AcDbEntity
8
0
100
AcDbBlockBegin
2
HALF
70
0
10
0.0
20
0.0
30
0.0
3
HALF
1

0
SOLID
5
4a
100
AcDbEntity
8
0
6
BYBLOCK
62
0
100
AcDbTrace
10
-1.000000
20
0.166667
11
-1.000000
21
-0.166667
12
0.000000
22
0.000000
13
0.000000
23
0.000000
0
ENDBLK
5
4b
100
AcDbEntity
8
0
100
AcDbBlockEnd
0
BLOCK
5
4c
100
AcDbEntity
8
0
100
AcDbBlockBegin
2
CLOSEDBLANK
70
0
10
0.0
20
0.0
30
0.0
3
CLOSEDBLANK
1

0
LINE
5
4d
100
AcDbEntity
8
0
6
BYBLOCK
62
0
100
AcDbLine
10
-1.000000
20
0.166667
11
-1.000000
21
-0.166667
0
LINE
5
4e
100
AcDbEntity
8
0
6
BYBLOCK
62
0
100
AcDbLine
10
0.000000
20
0.000000
11
-1.000000
21
-0.166667
0
LINE
5
4f
100
AcDbEntity
8
0
6
BYBLOCK
62
0
100
AcDbLine
10
-1.000000
20
0.166667
11
0.000000
21
0.000000
0
ENDBLK
5
50
100
AcDbEntity
8
0
100
AcDbBlockEnd
0
BLOCK
5
51
100
AcDbEntity
8
0
100
AcDbBlockBegin
2
HALFCLOSE_R
70
0
10
0.0
20
0.0
30
0.0
3
HALFCLOSE_R
1

0
LINE
5
52
100
AcDbEntity
8
0
6
BYBLOCK
62
0
100
AcDbLine
10
-1.000000
20
-0.166667
11
-1.000000
21
0.000000
0
LINE
5
53
100
AcDbEntity
8
0
6
BYBLOCK
62
0
100
AcDbLine
10
-1.000000
20
-0.166667
11
0.000000
21
0.000000
0
LINE
5
54
100
AcDbEntity
8
0
6
BYBLOCK
62
0
100
AcDbLine
10
0.000000
20
0.000000
11
-1.000000
21
0.000000
0
ENDBLK
5
55
100
AcDbEntity
8
0
100
AcDbBlockEnd
0
BLOCK
5
56
100
AcDbEntity
8
0
100
AcDbBlockBegin
2
DOT
70
0
10
0.0
20
0.0
30
0.0
3
DOT
1

0
LINE
5
57
100
AcDbEntity
8
0
6
BYBLOCK
62
0
100
AcDbLine
10
0.000000
20
0.000000
11
-1.000000
21
0.000000
0
POLYLINE
5
58
100
AcDbEntity
8
0
6
BYBLOCK
62
0
100
AcDb2dPolyline
66
1
10
0.0
20
0.0
30
0.0
70
1
40
0.166667
41
0.166667
0
VERTEX
5
59
100
AcDbEntity
8
0
100
AcDbVertex
100
AcDb2dVertex
62
12
10
-0.083333
20
0.000000
42
1.000000
0
VERTEX
5
5a
100
AcDbEntity
8
0
100
AcDbVertex
100
AcDb2dVertex
62
12
10
0.083333
20
0.000000
42
1.000000
0
SEQEND
5
5b
100
AcDbEntity
8
0
0
ENDBLK
5
5c
100
AcDbEntity
8
0
100
AcDbBlockEnd
0
BLOCK
5
5d
100
AcDbEntity
8
0
100
AcDbBlockBegin
2
HALFOPEN_R
70
0
10
0.0
20
0.0
30
0.0
3
HALFOPEN_R
1

0
LINE
5
5e
100
AcDbEntity
8
0
6
BYBLOCK
62
0
100
AcDbLine
10
-1.000000
20
-0.166667
11
0.000000
21
0.000000
0
LINE
5
5f
100
AcDbEntity
8
0
6
BYBLOCK
62
0
100
AcDbLine
10
0.000000
20
0.000000
11
-1.000000
21
0.000000
0
ENDBLK
5
60
100
AcDbEntity
8
0
100
AcDbBlockEnd
0
BLOCK
5
61
100
AcDbEntity
8
0
100
AcDbBlockBegin
2
CLOSEDF
70
0
10
0.0
20
0.0
30
0.0
3
CLOSEDF
1

0
SOLID
5
62
100
AcDbEntity
8
0
6
BYBLOCK
62
0
100
AcDbTrace
10
-1.000000
20
0.166667
11
-1.000000
21
-0.166667
12
0.000000
22
0.000000
13
0.000000
23
0.000000
0
ENDBLK
5
63
100
AcDbEntity
8
0
100
AcDbBlockEnd
0
BLOCK
5
64
100
AcDbEntity
8
0
100
AcDbBlockBegin
2
HALF_R
70
0
10
0.0
20
0.0
30
0.0
3
HALF_R
1

0
SOLID
5
65
100
AcDbEntity
8
0
6
BYBLOCK
62
0
100
AcDbTrace
10
-1.000000
20
-0.166667
11
-1.000000
21
0.000000
12
0.000000
22
0.000000
13
0.000000
23
0.000000
0
ENDBLK
5
66
100
AcDbEntity
8
0
100
AcDbBlockEnd
0
ENDSEC
0
SECTION
2
ENTITIES
0
LINE
5
67
100
AcDbEntity
8
1
100
AcDbLine
6
CONTINUOUS
62
5
10
435.497016
20
546.674255
11
435.497016
21
552.274255
0
LINE
5
68
100
AcDbEntity
8
1
100
AcDbLine
6
CONTINUOUS
62
5
10
436.866989
20
559.734255
11
436.866989
21
554.014255
0
LINE
5
69
100
AcDbEntity
8
1
100
AcDbLine
6
CONTINUOUS
62
5
10
437.026989
20
559.574255
11
437.026989
21
554.174255
0
POLYLINE
5
6a
100
AcDbEntity
8
1
6
CONTINUOUS
62
5
100
AcDb2dPolyline
66
1
10
0.0
20
0.0
30
0.0
70
0
0
VERTEX
5
6b
100
AcDbEntity
8
1
100
AcDbVertex
100
AcDb2dVertex
62
5
10
419.237016
20
559.674255
0
VERTEX
5
6c
100
AcDbEntity
8
1
100
AcDbVertex
100
AcDb2dVertex
62
5
10
418.837016
20
559.674255
0
VERTEX
5
6d
100
AcDbEntity
8
1
100
AcDbVertex
100
AcDb2dVertex
62
5
10
418.837016
20
562.674255
0
VERTEX
5
6e
100
AcDbEntity
8
1
100
AcDbVertex
100
AcDb2dVertex
62
5
10
419.237016
20
562.674255
0
SEQEND
5
6f
100
AcDbEntity
8
1
0
LINE
5
70
100
AcDbEntity
8
1
100
AcDbLine
6
CONTINUOUS
62
5
10
415.876670
20
558.138954
11
415.876670
21
556.738955
0
POLYLINE
5
71
100
AcDbEntity
8
1
6
CONTINUOUS
62
5
100
AcDb2dPolyline
66
1
10
0.0
20
0.0
30
0.0
70
0
0
VERTEX
5
72
100
AcDbEntity
8
1
100
AcDbVertex
100
AcDb2dVertex
62
5
10
416.637071
20
558.138954
0
VERTEX
5
73
100
AcDbEntity
8
1
100
AcDbVertex
100
AcDb2dVertex
62
5
10
415.876670
20
558.138954
0
VERTEX
5
74
100
AcDbEntity
8
1
100
AcDbVertex
100
AcDb2dVertex
62
5
10
415.837072
20
558.099357
0
VERTEX
5
75
100
AcDbEntity
8
1
100
AcDbVertex
100
AcDb2dVertex
62
5
10
415.837072
20
556.778553
0
VERTEX
5
76
100
AcDbEntity
8
1
100
AcDbVertex
100
AcDb2dVertex
62
5
10
415.876670
20
556.738955
0
VERTEX
5
77
100
AcDbEntity
8
1
100
AcDbVertex
100
AcDb2dVertex
62
5
10
416.637071
20
556.738955
0
SEQEND
5
78
100
AcDbEntity
8
1
0
LINE
5
79
100
AcDbEntity
8
1
100
AcDbLine
6
CONTINUOUS
62
5
10
416.837016
20
562.974255
11
416.837016
21
558.574255
0
POLYLINE
5
7a
100
AcDbEntity
8
1
6
CONTINUOUS
62
5
100
AcDb2dPolyline
66
1
10
0.0
20
0.0
30
0.0
70
0
0
VERTEX
5
7b
100
AcDbEntity
8
1
100
AcDbVertex
100
AcDb2dVertex
62
5
10
416.837016
20
558.574255
0
VERTEX
5
7c
100
AcDbEntity
8
1
100
AcDbVertex
100
AcDb2dVertex
62
5
10
416.837016
20
562.874255
0
VERTEX
5
7d
100
AcDbEntity
8
1
100
AcDbVertex
100
AcDb2dVertex
62
5
10
417.437016
20
562.874255
0
SEQEND
5
7e
100
AcDbEntity
8
1
0
LINE
5
7f
100
AcDbEntity
8
1
100
AcDbLine
6
CONTINUOUS
62
5
10
417.637071
20
558.574255
11
416.637071
21
558.574255
0
LINE
5
80
100
AcDbEntity
8
1
100
AcDbLine
6
CONTINUOUS
62
5
10
433.836475
20
550.874255
11
433.836097
21
550.874255
0
LINE
5
81
100
AcDbEntity
8
1
100
AcDbLine
6
CONTINUOUS
62
5
10
417.637071
20
547.774255
11
416.637071
21
547.774255
0
LINE
5
82
100
AcDbEntity
8
1
100
AcDbLine
6
CONTINUOUS
62
5
10
416.637071
20
553.174255
11
416.637071
21
548.209555
0
LINE
5
83
100
AcDbEntity
8
1
100
AcDbLine
6
CONTINUOUS
62
5
10
416.637071
20
553.174255
11
416.637071
21
547.774255
0
LINE
5
84
100
AcDbEntity
8
1
100
AcDbLine
6
CONTINUOUS
62
5
10
415.876670
20
548.209555
11
415.876670
21
549.609554
0
POLYLINE
5
85
100
AcDbEntity
8
1
6
CONTINUOUS
62
5
100
AcDb2dPolyline
66
1
10
0.0
20
0.0
30
0.0
70
0
0
VERTEX
5
86
100
AcDbEntity
8
1
100
AcDbVertex
100
AcDb2dVertex
62
5
10
416.637071
20
548.209555
0
VERTEX
5
87
100
AcDbEntity
8
1
100
AcDbVertex
100
AcDb2dVertex
62
5
10
415.876670
20
548.209555
0
VERTEX
5
88
100
AcDbEntity
8
1
100
AcDbVertex
100
AcDb2dVertex
62
5
10
415.837072
20
548.249153
0
VERTEX
5
89
100
AcDbEntity
8
1
100
AcDbVertex
100
AcDb2dVertex
62
5
10
415.837072
20
549.569957
0
VERTEX
5
8a
100
AcDbEntity
8
1
100
AcDbVertex
100
AcDb2dVertex
62
5
10
415.876670
20
549.609554
0
VERTEX
5
8b
100
AcDbEntity
8
1
100
AcDbVertex
100
AcDb2dVertex
62
5
10
416.637071
20
549.609554
0
SEQEND
5
8c
100
AcDbEntity
8
1
0
POLYLINE
5
8d
100
AcDbEntity
8
1
6
CONTINUOUS
62
5
100
AcDb2dPolyline
66
1
10
0.0
20
0.0
30
0.0
70
0
0
VERTEX
5
8e
100
AcDbEntity
8
1
100
AcDbVertex
100
AcDb2dVertex
62
5
10
419.237016
20
546.674255
0
VERTEX
5
8f
100
AcDbEntity
8
1
100
AcDbVertex
100
AcDb2dVertex
62
5
10
418.837016
20
546.674255
0
VERTEX
5
90
100
AcDbEntity
8
1
100
AcDbVertex
100
AcDb2dVertex
62
5
10
418.837016
20
543.674255
0
VERTEX
5
91
100
AcDbEntity
8
1
100
AcDbVertex
100
AcDb2dVertex
62
5
10
419.237016
20
543.674255
0
SEQEND
5
92
100
AcDbEntity
8
1
0
POLYLINE
5
93
100
AcDbEntity
8
1
6
CONTINUOUS
62
5
100
AcDb2dPolyline
66
1
10
0.0
20
0.0
30
0.0
70
0
0
VERTEX
5
94
100
AcDbEntity
8
1
100
AcDbVertex
100
AcDb2dVertex
62
5
10
416.837016
20
547.774255
0
VERTEX
5
95
100
AcDbEntity
8
1
100
AcDbVertex
100
AcDb2dVertex
62
5
10
416.837016
20
543.474255
0
VERTEX
5
96
100
AcDbEntity
8
1
100
AcDbVertex
100
AcDb2dVertex
62
5
10
417.437016
20
543.474255
0
SEQEND
5
97
100
AcDbEntity
8
1
0
LINE
5
98
100
AcDbEntity
8
1
100
AcDbLine
6
CONTINUOUS
62
5
10
434.166989
20
559.734255
11
434.166989
21
554.014255
0
LINE
5
99
100
AcDbEntity
8
1
100
AcDbLine
6
DOT2
62
5
10
423.037016
20
553.174255
11
420.637016
21
553.174255
0
LINE
5
9a
100
AcDbEntity
8
1
100
AcDbLine
6
DOT2
62
5
10
421.837016
20
554.374255
11
421.837016
21
551.974255
0
CIRCLE
5
9b
100
AcDbEntity
8
1
100
AcDbCircle
6
DOT2
62
5
10
421.837016
20
553.174255
40
0.800000
0
CIRCLE
5
9c
100
AcDbEntity
8
1
100
AcDbCircle
6
CONTINUOUS
62
5
10
421.837016
20
553.174255
40
0.640000
0
LINE
5
9d
100
AcDbEntity
8
1
100
AcDbLine
6
CONTINUOUS
62
5
10
416.637071
20
553.174255
11
416.637071
21
558.138954
0
LINE
5
9e
100
AcDbEntity
8
1
100
AcDbLine
6
CONTINUOUS
62
5
10
416.637071
20
558.574255
11
416.637071
21
553.174255
0
ARC
5
9f
100
AcDbEntity
8
1
100
AcDbCircle
6
CONTINUOUS
62
5
10
417.737016
20
543.474255
40
0.300000
100
AcDbArc
50
-179.999998
51
-89.999999
0
LINE
5
a0
100
AcDbEntity
8
1
100
AcDbLine
6
CONTINUOUS
62
5
10
417.737016
20
543.174255
11
419.537016
21
543.174255
0
LINE
5
a1
100
AcDbEntity
8
1
100
AcDbLine
6
CONTINUOUS
62
5
10
419.537016
20
563.174255
11
417.737016
21
563.174255
0
ARC
5
a2
100
AcDbEntity
8
1
100
AcDbCircle
6
CONTINUOUS
62
5
10
417.737016
20
562.874255
40
0.300000
100
AcDbArc
50
89.999999
51
-179.999998
0
LINE
5
a3
100
AcDbEntity
8
1
100
AcDbLine
6
CONTINUOUS
62
5
10
417.437016
20
562.874255
11
417.437016
21
543.474255
0
POLYLINE
5
a4
100
AcDbEntity
8
1
6
CONTINUOUS
62
5
100
AcDb2dPolyline
66
1
10
0.0
20
0.0
30
0.0
70
1
0
VERTEX
5
a5
100
AcDbEntity
8
1
100
AcDbVertex
100
AcDb2dVertex
62
5
10
417.635211
20
563.174255
0
VERTEX
5
a6
100
AcDbEntity
8
1
100
AcDbVertex
100
AcDb2dVertex
62
5
10
417.635211
20
543.174255
0
VERTEX
5
a7
100
AcDbEntity
8
1
100
AcDbVertex
100
AcDb2dVertex
62
5
10
418.835210
20
543.174255
0
VERTEX
5
a8
100
AcDbEntity
8
1
100
AcDbVertex
100
AcDb2dVertex
62
5
10
418.835210
20
563.174255
0
SEQEND
5
a9
100
AcDbEntity
8
1
0
ARC
5
aa
100
AcDbEntity
8
1
100
AcDbCircle
6
CONTINUOUS
62
5
10
419.537016
20
543.474255
40
0.300000
100
AcDbArc
50
-179.999998
51
-89.999999
0
LINE
5
ab
100
AcDbEntity
8
1
100
AcDbLine
6
CONTINUOUS
62
5
10
419.237016
20
543.474255
11
419.237016
21
562.874255
0
ARC
5
ac
100
AcDbEntity
8
1
100
AcDbCircle
6
CONTINUOUS
62
5
10
419.537016
20
562.874255
40
0.300000
100
AcDbArc
50
89.999999
51
-179.999998
0
POLYLINE
5
ad
100
AcDbEntity
8
1
6
CONTINUOUS
62
5
100
AcDb2dPolyline
66
1
10
0.0
20
0.0
30
0.0
70
0
0
VERTEX
5
ae
100
AcDbEntity
8
1
100
AcDbVertex
100
AcDb2dVertex
62
5
10
419.537016
20
563.174255
0
VERTEX
5
af
100
AcDbEntity
8
1
100
AcDbVertex
100
AcDb2dVertex
62
5
10
433.737016
20
563.174255
0
VERTEX
5
b0
100
AcDbEntity
8
1
100
AcDbVertex
100
AcDb2dVertex
62
5
10
433.837016
20
563.074255
0
VERTEX
5
b1
100
AcDbEntity
8
1
100
AcDbVertex
100
AcDb2dVertex
62
5
10
433.837016
20
543.274255
0
VERTEX
5
b2
100
AcDbEntity
8
1
100
AcDbVertex
100
AcDb2dVertex
62
5
10
433.737016
20
543.174255
0
VERTEX
5
b3
100
AcDbEntity
8
1
100
AcDbVertex
100
AcDb2dVertex
62
5
10
419.537016
20
543.174255
0
SEQEND
5
b4
100
AcDbEntity
8
1
0
LINE
5
b5
100
AcDbEntity
8
1
100
AcDbLine
6
DOT2
62
5
10
437.026989
20
559.574255
11
434.166989
21
559.574255
0
LINE
5
b6
100
AcDbEntity
8
1
100
AcDbLine
6
DOT2
62
5
10
437.026989
20
554.174255
11
434.166989
21
554.174255
0
POLYLINE
5
b7
100
AcDbEntity
8
1
6
CONTINUOUS
62
5
100
AcDb2dPolyline
66
1
10
0.0
20
0.0
30
0.0
70
0
0
VERTEX
5
b8
100
AcDbEntity
8
1
100
AcDbVertex
100
AcDb2dVertex
62
5
10
433.837016
20
559.734255
0
VERTEX
5
b9
100
AcDbEntity
8
1
100
AcDbVertex
100
AcDb2dVertex
62
5
10
436.866989
20
559.734255
0
VERTEX
5
ba
100
AcDbEntity
8
1
100
AcDbVertex
100
AcDb2dVertex
62
5
10
437.026989
20
559.574255
0
VERTEX
5
bb
100
AcDbEntity
8
1
100
AcDbVertex
100
AcDb2dVertex
62
5
10
437.346989
20
559.574255
0
VERTEX
5
bc
100
AcDbEntity
8
1
100
AcDbVertex
100
AcDb2dVertex
62
5
10
437.346989
20
556.874255
0
VERTEX
5
bd
100
AcDbEntity
8
1
100
AcDbVertex
100
AcDb2dVertex
62
5
10
437.346989
20
554.174255
0
VERTEX
5
be
100
AcDbEntity
8
1
100
AcDbVertex
100
AcDb2dVertex
62
5
10
437.026989
20
554.174255
0
VERTEX
5
bf
100
AcDbEntity
8
1
100
AcDbVertex
100
AcDb2dVertex
62
5
10
436.866989
20
554.014255
0
VERTEX
5
c0
100
AcDbEntity
8
1
100
AcDbVertex
100
AcDb2dVertex
62
5
10
433.837016
20
554.014255
0
SEQEND
5
c1
100
AcDbEntity
8
1
0
LINE
5
c2
100
AcDbEntity
8
1
100
AcDbLine
6
CONTINUOUS
62
5
10
435.297016
20
552.474255
11
435.297016
21
546.474255
0
LINE
5
c3
100
AcDbEntity
8
1
100
AcDbLine
6
CONTINUOUS
62
5
10
434.597016
20
546.474255
11
434.597016
21
552.474255
0
POLYLINE
5
c4
100
AcDbEntity
8
1
6
CONTINUOUS
62
5
100
AcDb2dPolyline
66
1
10
0.0
20
0.0
30
0.0
70
1
0
VERTEX
5
c5
100
AcDbEntity
8
1
100
AcDbVertex
100
AcDb2dVertex
62
5
10
435.297016
20
552.474255
0
VERTEX
5
c6
100
AcDbEntity
8
1
100
AcDbVertex
100
AcDb2dVertex
62
5
10
434.597016
20
552.474255
0
VERTEX
5
c7
100
AcDbEntity
8
1
100
AcDbVertex
100
AcDb2dVertex
62
5
10
434.597016
20
546.474255
0
VERTEX
5
c8
100
AcDbEntity
8
1
100
AcDbVertex
100
AcDb2dVertex
62
5
10
435.297016
20
546.474255
0
VERTEX
5
c9
100
AcDbEntity
8
1
100
AcDbVertex
100
AcDb2dVertex
62
5
10
435.297016
20
552.474255
0
SEQEND
5
ca
100
AcDbEntity
8
1
0
POLYLINE
5
cb
100
AcDbEntity
8
1
6
CONTINUOUS
62
5
100
AcDb2dPolyline
66
1
10
0.0
20
0.0
30
0.0
70
0
0
VERTEX
5
cc
100
AcDbEntity
8
1
100
AcDbVertex
100
AcDb2dVertex
62
5
10
433.837315
20
546.474255
0
VERTEX
5
cd
100
AcDbEntity
8
1
100
AcDbVertex
100
AcDb2dVertex
62
5
10
435.297016
20
546.474255
0
VERTEX
5
ce
100
AcDbEntity
8
1
100
AcDbVertex
100
AcDb2dVertex
62
5
10
435.497016
20
546.674255
0
VERTEX
5
cf
100
AcDbEntity
8
1
100
AcDbVertex
100
AcDb2dVertex
62
5
10
435.697016
20
546.674255
0
VERTEX
5
d0
100
AcDbEntity
8
1
100
AcDbVertex
100
AcDb2dVertex
62
5
10
435.697016
20
552.274255
0
VERTEX
5
d1
100
AcDbEntity
8
1
100
AcDbVertex
100
AcDb2dVertex
62
5
10
435.497016
20
552.274255
0
VERTEX
5
d2
100
AcDbEntity
8
1
100
AcDbVertex
100
AcDb2dVertex
62
5
10
435.297016
20
552.474255
0
VERTEX
5
d3
100
AcDbEntity
8
1
100
AcDbVertex
100
AcDb2dVertex
62
5
10
433.837315
20
552.474255
0
SEQEND
5
d4
100
AcDbEntity
8
1
0
LINE
5
d5
100
AcDbEntity
8
1
100
AcDbLine
6
CONTINUOUS
62
5
10
416.637068
20
502.303613
11
416.637068
21
498.303615
0
LINE
5
d6
100
AcDbEntity
8
1
100
AcDbLine
6
CONTINUOUS
62
5
10
416.637068
20
502.303613
11
416.637068
21
498.303615
0
LINE
5
d7
100
AcDbEntity
8
1
100
AcDbLine
6
CONTINUOUS
62
5
10
416.637068
20
504.303612
11
416.637068
21
505.268314
0
LINE
5
d8
100
AcDbEntity
8
1
100
AcDbLine
6
CONTINUOUS
62
5
10
415.876666
20
505.268314
11
415.876666
21
503.868314
0
POLYLINE
5
d9
100
AcDbEntity
8
1
6
CONTINUOUS
62
5
100
AcDb2dPolyline
66
1
10
0.0
20
0.0
30
0.0
70
0
0
VERTEX
5
da
100
AcDbEntity
8
1
100
AcDbVertex
100
AcDb2dVertex
62
5
10
416.637068
20
505.268314
0
VERTEX
5
db
100
AcDbEntity
8
1
100
AcDbVertex
100
AcDb2dVertex
62
5
10
415.876666
20
505.268314
0
VERTEX
5
dc
100
AcDbEntity
8
1
100
AcDbVertex
100
AcDb2dVertex
62
5
10
415.837068
20
505.228716
0
VERTEX
5
dd
100
AcDbEntity
8
1
100
AcDbVertex
100
AcDb2dVertex
62
5
10
415.837068
20
503.907912
0
VERTEX
5
de
100
AcDbEntity
8
1
100
AcDbVertex
100
AcDb2dVertex
62
5
10
415.876666
20
503.868314
0
VERTEX
5
df
100
AcDbEntity
8
1
100
AcDbVertex
100
AcDb2dVertex
62
5
10
416.435208
20
503.868314
0
SEQEND
5
e0
100
AcDbEntity
8
1
0
LINE
5
e1
100
AcDbEntity
8
1
100
AcDbLine
6
CONTINUOUS
62
5
10
416.494605
20
504.303612
11
416.494605
21
502.303613
0
POLYLINE
5
e2
100
AcDbEntity
8
1
6
CONTINUOUS
62
5
100
AcDb2dPolyline
66
1
10
0.0
20
0.0
30
0.0
70
1
0
VERTEX
5
e3
100
AcDbEntity
8
1
100
AcDbVertex
100
AcDb2dVertex
62
5
10
417.635208
20
504.303612
0
VERTEX
5
e4
100
AcDbEntity
8
1
100
AcDbVertex
100
AcDb2dVertex
62
5
10
416.494605
20
504.303612
0
VERTEX
5
e5
100
AcDbEntity
8
1
100
AcDbVertex
100
AcDb2dVertex
62
5
10
416.435208
20
504.244215
0
VERTEX
5
e6
100
AcDbEntity
8
1
100
AcDbVertex
100
AcDb2dVertex
62
5
10
416.435208
20
502.363010
0
VERTEX
5
e7
100
AcDbEntity
8
1
100
AcDbVertex
100
AcDb2dVertex
62
5
10
416.494605
20
502.303613
0
VERTEX
5
e8
100
AcDbEntity
8
1
100
AcDbVertex
100
AcDb2dVertex
62
5
10
417.635208
20
502.303613
0
VERTEX
5
e9
100
AcDbEntity
8
1
100
AcDbVertex
100
AcDb2dVertex
62
5
10
417.635208
20
504.303612
0
SEQEND
5
ea
100
AcDbEntity
8
1
0
LINE
5
eb
100
AcDbEntity
8
1
100
AcDbLine
6
CONTINUOUS
62
5
10
416.637068
20
505.703614
11
416.637068
21
504.303612
0
LINE
5
ec
100
AcDbEntity
8
1
100
AcDbLine
6
CONTINUOUS
62
5
10
417.637068
20
505.703614
11
416.637068
21
505.703614
0
LINE
5
ed
100
AcDbEntity
8
1
100
AcDbLine
6
DOT2
62
5
10
393.836999
20
565.614086
11
393.836999
21
561.961034
0
LINE
5
ee
100
AcDbEntity
8
1
100
AcDbLine
6
CONTINUOUS
62
5
10
390.936848
20
564.774255
11
390.937016
21
563.374255
0
LINE
5
ef
100
AcDbEntity
8
1
100
AcDbLine
6
CONTINUOUS
62
5
10
396.736848
20
564.774255
11
396.737016
21
563.374255
0
POLYLINE
5
f0
100
AcDbEntity
8
1
6
CONTINUOUS
62
5
100
AcDb2dPolyline
66
1
10
0.0
20
0.0
30
0.0
70
0
0
VERTEX
5
f1
100
AcDbEntity
8
1
100
AcDbVertex
100
AcDb2dVertex
62
5
10
395.037016
20
563.374255
0
VERTEX
5
f2
100
AcDbEntity
8
1
100
AcDbVertex
100
AcDb2dVertex
62
5
10
395.037016
20
564.774255
0
VERTEX
5
f3
100
AcDbEntity
8
1
100
AcDbVertex
100
AcDb2dVertex
62
5
10
397.837016
20
564.774255
0
VERTEX
5
f4
100
AcDbEntity
8
1
100
AcDbVertex
100
AcDb2dVertex
62
5
10
399.237016
20
563.374255
0
SEQEND
5
f5
100
AcDbEntity
8
1
0
LINE
5
f6
100
AcDbEntity
8
1
100
AcDbLine
6
CONTINUOUS
62
5
10
390.937016
20
541.574255
11
390.937016
21
542.974255
0
LINE
5
f7
100
AcDbEntity
8
1
100
AcDbLine
6
CONTINUOUS
62
5
10
396.737016
20
541.574255
11
396.737016
21
542.974255
0
POLYLINE
5
f8
100
AcDbEntity
8
1
6
CONTINUOUS
62
5
100
AcDb2dPolyline
66
1
10
0.0
20
0.0
30
0.0
70
0
0
VERTEX
5
f9
100
AcDbEntity
8
1
100
AcDbVertex
100
AcDb2dVertex
62
5
10
395.037016
20
542.974255
0
VERTEX
5
fa
100
AcDbEntity
8
1
100
AcDbVertex
100
AcDb2dVertex
62
5
10
395.037016
20
541.574255
0
VERTEX
5
fb
100
AcDbEntity
8
1
100
AcDbVertex
100
AcDb2dVertex
62
5
10
397.837016
20
541.574255
0
VERTEX
5
fc
100
AcDbEntity
8
1
100
AcDbVertex
100
AcDb2dVertex
62
5
10
399.237016
20
542.974255
0
SEQEND
5
fd
100
AcDbEntity
8
1
0
LINE
5
fe
100
AcDbEntity
8
1
100
AcDbLine
6
DOT2
62
5
10
393.836999
20
544.110754
11
393.836999
21
540.710180
0
LINE
5
ff
100
AcDbEntity
8
1
100
AcDbLine
6
CONTINUOUS
62
5
10
395.504798
20
547.774255
11
395.504798
21
558.574255
0
LINE
5
100
100
AcDbEntity
8
1
100
AcDbLine
6
CONTINUOUS
62
5
10
401.504798
20
558.574255
11
401.504798
21
547.774255
0
LINE
5
101
100
AcDbEntity
8
1
100
AcDbLine
6
CONTINUOUS
62
5
10
369.736842
20
564.774255
11
369.737017
21
562.440317
0
LINE
5
102
100
AcDbEntity
8
1
100
AcDbLine
6
CONTINUOUS
62
5
10
369.737016
20
541.574255
11
369.737016
21
543.908193
0
LINE
5
103
100
AcDbEntity
8
1
100
AcDbLine
6
DOT2
62
5
10
380.237016
20
554.374255
11
380.237016
21
551.974255
0
LINE
5
104
100
AcDbEntity
8
1
100
AcDbLine
6
DOT2
62
5
10
379.037016
20
553.174255
11
381.437016
21
553.174255
0
CIRCLE
5
105
100
AcDbEntity
8
1
100
AcDbCircle
6
CONTINUOUS
62
5
10
380.237016
20
553.174255
40
0.640000
0
CIRCLE
5
106
100
AcDbEntity
8
1
100
AcDbCircle
6
DOT2
62
5
10
380.237016
20
553.174255
40
0.800000
0
LINE
5
107
100
AcDbEntity
8
1
100
AcDbLine
6
CONTINUOUS
62
5
10
378.237016
20
559.674255
11
378.237016
21
546.674255
0
ARC
5
108
100
AcDbEntity
8
1
100
AcDbCircle
6
CONTINUOUS
62
5
10
366.837016
20
562.674255
40
1.200000
100
AcDbArc
50
-19.167758
51
-3.650273
0
POLYLINE
5
109
100
AcDbEntity
8
1
6
CONTINUOUS
62
5
100
AcDb2dPolyline
66
1
10
0.0
20
0.0
30
0.0
70
0
0
VERTEX
5
10a
100
AcDbEntity
8
1
100
AcDbVertex
100
AcDb2dVertex
62
5
10
368.034581
20
562.597855
0
VERTEX
5
10b
100
AcDbEntity
8
1
100
AcDbVertex
100
AcDb2dVertex
62
5
10
368.037016
20
564.774255
0
VERTEX
5
10c
100
AcDbEntity
8
1
100
AcDbVertex
100
AcDb2dVertex
62
5
10
370.837016
20
564.774255
0
SEQEND
5
10d
100
AcDbEntity
8
1
0
ARC
5
10e
100
AcDbEntity
8
1
100
AcDbCircle
6
CONTINUOUS
62
5
10
371.437016
20
564.774255
40
0.600000
100
AcDbArc
50
-179.999998
51
-89.999999
0
LINE
5
10f
100
AcDbEntity
8
1
100
AcDbLine
6
CONTINUOUS
62
5
10
371.437016
20
564.174255
11
389.237016
21
564.174255
0
ARC
5
110
100
AcDbEntity
8
1
100
AcDbCircle
6
CONTINUOUS
62
5
10
389.237016
20
564.774255
40
0.600000
100
AcDbArc
50
-89.999999
51
0.000000
0
POLYLINE
5
111
100
AcDbEntity
8
1
6
CONTINUOUS
62
5
100
AcDb2dPolyline
66
1
10
0.0
20
0.0
30
0.0
70
0
0
VERTEX
5
112
100
AcDbEntity
8
1
100
AcDbVertex
100
AcDb2dVertex
62
5
10
389.837016
20
564.774255
0
VERTEX
5
113
100
AcDbEntity
8
1
100
AcDbVertex
100
AcDb2dVertex
62
5
10
389.837016
20
564.774255
0
VERTEX
5
114
100
AcDbEntity
8
1
100
AcDbVertex
100
AcDb2dVertex
62
5
10
392.637016
20
564.774255
0
VERTEX
5
115
100
AcDbEntity
8
1
100
AcDbVertex
100
AcDb2dVertex
62
5
10
392.637016
20
563.374255
0
SEQEND
5
116
100
AcDbEntity
8
1
0
ARC
5
117
100
AcDbEntity
8
1
100
AcDbCircle
6
CONTINUOUS
62
5
10
371.437016
20
541.574255
40
0.600000
100
AcDbArc
50
89.999999
51
179.999998
0
LINE
5
118
100
AcDbEntity
8
1
100
AcDbLine
6
CONTINUOUS
62
5
10
371.437016
20
542.174255
11
389.237016
21
542.174255
0
ARC
5
119
100
AcDbEntity
8
1
100
AcDbCircle
6
CONTINUOUS
62
5
10
389.237016
20
541.574255
40
0.600000
100
AcDbArc
50
0.000000
51
89.999999
0
POLYLINE
5
11a
100
AcDbEntity
8
1
6
CONTINUOUS
62
5
100
AcDb2dPolyline
66
1
10
0.0
20
0.0
30
0.0
70
0
0
VERTEX
5
11b
100
AcDbEntity
8
1
100
AcDbVertex
100
AcDb2dVertex
62
5
10
389.837016
20
541.574255
0
VERTEX
5
11c
100
AcDbEntity
8
1
100
AcDbVertex
100
AcDb2dVertex
62
5
10
389.837016
20
541.574255
0
VERTEX
5
11d
100
AcDbEntity
8
1
100
AcDbVertex
100
AcDb2dVertex
62
5
10
392.637016
20
541.574255
0
VERTEX
5
11e
100
AcDbEntity
8
1
100
AcDbVertex
100
AcDb2dVertex
62
5
10
392.637016
20
542.974255
0
SEQEND
5
11f
100
AcDbEntity
8
1
0
ARC
5
120
100
AcDbEntity
8
1
100
AcDbCircle
6
CONTINUOUS
62
5
10
366.837016
20
543.674255
40
1.200000
100
AcDbArc
50
2.807738
51
19.167758
0
POLYLINE
5
121
100
AcDbEntity
8
1
6
CONTINUOUS
62
5
100
AcDb2dPolyline
66
1
10
0.0
20
0.0
30
0.0
70
0
0
VERTEX
5
122
100
AcDbEntity
8
1
100
AcDbVertex
100
AcDb2dVertex
62
5
10
368.035575
20
543.733036
0
VERTEX
5
123
100
AcDbEntity
8
1
100
AcDbVertex
100
AcDb2dVertex
62
5
10
368.037016
20
541.574255
0
VERTEX
5
124
100
AcDbEntity
8
1
100
AcDbVertex
100
AcDb2dVertex
62
5
10
370.837016
20
541.574255
0
SEQEND
5
125
100
AcDbEntity
8
1
0
ARC
5
126
100
AcDbEntity
8
1
100
AcDbCircle
6
CONTINUOUS
62
5
10
380.437016
20
554.559895
40
0.200000
100
AcDbArc
50
179.999998
51
-98.213210
0
ARC
5
127
100
AcDbEntity
8
1
100
AcDbCircle
6
CONTINUOUS
62
5
10
380.237016
20
553.174255
40
1.200000
100
AcDbArc
50
-81.786789
51
81.786789
0
ARC
5
128
100
AcDbEntity
8
1
100
AcDbCircle
6
CONTINUOUS
62
5
10
380.437016
20
551.788614
40
0.200000
100
AcDbArc
50
98.213210
51
179.999998
0
POLYLINE
5
129
100
AcDbEntity
8
1
6
CONTINUOUS
62
5
100
AcDb2dPolyline
66
1
10
0.0
20
0.0
30
0.0
70
0
0
VERTEX
5
12a
100
AcDbEntity
8
1
100
AcDbVertex
100
AcDb2dVertex
62
5
10
380.237016
20
551.788614
0
VERTEX
5
12b
100
AcDbEntity
8
1
100
AcDbVertex
100
AcDb2dVertex
62
5
10
380.237016
20
542.974255
0
VERTEX
5
12c
100
AcDbEntity
8
1
100
AcDbVertex
100
AcDb2dVertex
62
5
10
416.837016
20
542.974255
0
VERTEX
5
12d
100
AcDbEntity
8
1
100
AcDbVertex
100
AcDb2dVertex
62
5
10
416.837016
20
547.774255
0
SEQEND
5
12e
100
AcDbEntity
8
1
0
POLYLINE
5
12f
100
AcDbEntity
8
1
6
CONTINUOUS
62
5
100
AcDb2dPolyline
66
1
10
0.0
20
0.0
30
0.0
70
0
0
VERTEX
5
130
100
AcDbEntity
8
1
100
AcDbVertex
100
AcDb2dVertex
62
5
10
416.837016
20
558.574255
0
VERTEX
5
131
100
AcDbEntity
8
1
100
AcDbVertex
100
AcDb2dVertex
62
5
10
416.837016
20
563.374255
0
VERTEX
5
132
100
AcDbEntity
8
1
100
AcDbVertex
100
AcDb2dVertex
62
5
10
380.237016
20
563.374255
0
VERTEX
5
133
100
AcDbEntity
8
1
100
AcDbVertex
100
AcDb2dVertex
62
5
10
380.237016
20
554.559895
0
SEQEND
5
134
100
AcDbEntity
8
1
0
LINE
5
135
100
AcDbEntity
8
1
100
AcDbLine
6
CONTINUOUS
62
5
10
381.141033
20
545.936564
11
415.887124
21
545.936564
0
LINE
5
136
100
AcDbEntity
8
1
100
AcDbLine
6
CONTINUOUS
62
5
10
416.637071
20
558.174255
11
391.037071
21
558.174255
0
LINE
5
137
100
AcDbEntity
8
1
100
AcDbLine
6
CONTINUOUS
62
5
10
381.141033
20
560.336564
11
415.887124
21
560.336564
0
LINE
5
138
100
AcDbEntity
8
1
100
AcDbLine
6
CONTINUOUS
62
5
10
416.637071
20
548.174255
11
391.037071
21
548.174255
0
POLYLINE
5
139
100
AcDbEntity
8
1
6
CONTINUOUS
62
5
100
AcDb2dPolyline
66
1
10
0.0
20
0.0
30
0.0
70
0
0
VERTEX
5
13a
100
AcDbEntity
8
1
100
AcDbVertex
100
AcDb2dVertex
62
5
10
416.637071
20
553.174255
0
VERTEX
5
13b
100
AcDbEntity
8
1
100
AcDbVertex
100
AcDb2dVertex
62
5
10
416.637071
20
547.774255
0
VERTEX
5
13c
100
AcDbEntity
8
1
100
AcDbVertex
100
AcDb2dVertex
62
5
10
391.037071
20
547.774255
0
VERTEX
5
13d
100
AcDbEntity
8
1
100
AcDbVertex
100
AcDb2dVertex
62
5
10
391.037071
20
558.574255
0
VERTEX
5
13e
100
AcDbEntity
8
1
100
AcDbVertex
100
AcDb2dVertex
62
5
10
416.637071
20
558.574255
0
VERTEX
5
13f
100
AcDbEntity
8
1
100
AcDbVertex
100
AcDb2dVertex
62
5
10
416.637071
20
553.174255
0
SEQEND
5
140
100
AcDbEntity
8
1
0
LINE
5
141
100
AcDbEntity
8
1
100
AcDbLine
6
CONTINUOUS
62
5
10
391.037068
20
497.360973
11
416.435208
21
497.360973
0
LINE
5
142
100
AcDbEntity
8
1
100
AcDbLine
6
CONTINUOUS
62
5
10
416.435208
20
496.960973
11
391.037068
21
496.960973
0
LINE
5
143
100
AcDbEntity
8
1
100
AcDbLine
6
CONTINUOUS
62
5
10
416.637068
20
505.303614
11
391.037068
21
505.303614
0
LINE
5
144
100
AcDbEntity
8
1
100
AcDbLine
6
CONTINUOUS
62
5
10
416.435208
20
503.646255
11
391.037068
21
503.646255
0
LINE
5
145
100
AcDbEntity
8
1
100
AcDbLine
6
CONTINUOUS
62
5
10
391.037068
20
503.246255
11
416.435208
21
503.246255
0
LINE
5
146
100
AcDbEntity
8
1
100
AcDbLine
6
DOT2
62
5
10
424.135992
20
500.303614
11
390.236761
21
500.303614
0
LINE
5
147
100
AcDbEntity
8
1
100
AcDbLine
6
CONTINUOUS
62
5
10
416.637071
20
549.831614
11
391.037071
21
549.831614
0
LINE
5
148
100
AcDbEntity
8
1
100
AcDbLine
6
CONTINUOUS
62
5
10
391.037071
20
550.231614
11
416.637071
21
550.231614
0
LINE
5
149
100
AcDbEntity
8
1
100
AcDbLine
6
CONTINUOUS
62
5
10
391.037071
20
556.116895
11
416.637071
21
556.116895
0
LINE
5
14a
100
AcDbEntity
8
1
100
AcDbLine
6
CONTINUOUS
62
5
10
416.637071
20
556.516895
11
391.037071
21
556.516895
0
LINE
5
14b
100
AcDbEntity
8
1
100
AcDbLine
6
DOT2
62
5
10
437.026955
20
482.783609
11
435.696983
21
482.783609
0
LINE
5
14c
100
AcDbEntity
8
1
100
AcDbLine
6
DOT2
62
5
10
437.026955
20
477.383609
11
435.696983
21
477.383609
0
LINE
5
14d
100
AcDbEntity
8
1
100
AcDbLine
6
CONTINUOUS
62
5
10
435.496983
20
477.283609
11
435.496983
21
482.883609
0
LINE
5
14e
100
AcDbEntity
8
1
100
AcDbLine
6
CONTINUOUS
62
5
10
437.026955
20
482.783609
11
437.026955
21
477.383609
0
POLYLINE
5
14f
100
AcDbEntity
8
1
6
CONTINUOUS
62
5
100
AcDb2dPolyline
66
1
10
0.0
20
0.0
30
0.0
70
0
0
VERTEX
5
150
100
AcDbEntity
8
1
100
AcDbVertex
100
AcDb2dVertex
62
5
10
435.436983
20
482.943609
0
VERTEX
5
151
100
AcDbEntity
8
1
100
AcDbVertex
100
AcDb2dVertex
62
5
10
436.866955
20
482.943609
0
VERTEX
5
152
100
AcDbEntity
8
1
100
AcDbVertex
100
AcDb2dVertex
62
5
10
437.026955
20
482.783609
0
VERTEX
5
153
100
AcDbEntity
8
1
100
AcDbVertex
100
AcDb2dVertex
62
5
10
437.346955
20
482.783609
0
VERTEX
5
154
100
AcDbEntity
8
1
100
AcDbVertex
100
AcDb2dVertex
62
5
10
437.346955
20
480.083609
0
VERTEX
5
155
100
AcDbEntity
8
1
100
AcDbVertex
100
AcDb2dVertex
62
5
10
437.346955
20
477.383609
0
VERTEX
5
156
100
AcDbEntity
8
1
100
AcDbVertex
100
AcDb2dVertex
62
5
10
437.026955
20
477.383609
0
VERTEX
5
157
100
AcDbEntity
8
1
100
AcDbVertex
100
AcDb2dVertex
62
5
10
436.866955
20
477.223609
0
VERTEX
5
158
100
AcDbEntity
8
1
100
AcDbVertex
100
AcDb2dVertex
62
5
10
435.436983
20
477.223609
0
SEQEND
5
159
100
AcDbEntity
8
1
0
LINE
5
15a
100
AcDbEntity
8
1
100
AcDbLine
6
CONTINUOUS
62
5
10
436.866955
20
482.943609
11
436.866955
21
477.223609
0
LINE
5
15b
100
AcDbEntity
8
1
100
AcDbLine
6
CONTINUOUS
62
5
10
433.836441
20
481.483609
11
433.836064
21
481.483609
0
LINE
5
15c
100
AcDbEntity
8
1
100
AcDbLine
6
CONTINUOUS
62
5
10
417.637068
20
494.903614
11
416.637068
21
494.903614
0
CIRCLE
5
15d
100
AcDbEntity
8
1
100
AcDbCircle
6
CONTINUOUS
62
5
10
414.836990
20
478.583609
40
0.480000
0
CIRCLE
5
15e
100
AcDbEntity
8
1
100
AcDbCircle
6
DOT2
62
5
10
414.836990
20
478.583609
40
0.600000
0
LINE
5
15f
100
AcDbEntity
8
1
100
AcDbLine
6
CONTINUOUS
62
5
10
433.837360
20
472.283609
11
433.836983
21
472.283609
0
LINE
5
160
100
AcDbEntity
8
1
100
AcDbLine
6
CONTINUOUS
62
5
10
417.436989
20
490.383604
11
417.436989
21
469.383613
0
LINE
5
161
100
AcDbEntity
8
1
100
AcDbLine
6
CONTINUOUS
62
5
10
435.296983
20
483.083609
11
435.296983
21
477.083609
0
LINE
5
162
100
AcDbEntity
8
1
100
AcDbLine
6
CONTINUOUS
62
5
10
434.596983
20
477.083609
11
434.596983
21
483.083609
0
POLYLINE
5
163
100
AcDbEntity
8
1
6
CONTINUOUS
62
5
100
AcDb2dPolyline
66
1
10
0.0
20
0.0
30
0.0
70
1
0
VERTEX
5
164
100
AcDbEntity
8
1
100
AcDbVertex
100
AcDb2dVertex
62
5
10
435.296983
20
483.083609
0
VERTEX
5
165
100
AcDbEntity
8
1
100
AcDbVertex
100
AcDb2dVertex
62
5
10
434.596983
20
483.083609
0
VERTEX
5
166
100
AcDbEntity
8
1
100
AcDbVertex
100
AcDb2dVertex
62
5
10
434.596983
20
477.083609
0
VERTEX
5
167
100
AcDbEntity
8
1
100
AcDbVertex
100
AcDb2dVertex
62
5
10
435.296983
20
477.083609
0
VERTEX
5
168
100
AcDbEntity
8
1
100
AcDbVertex
100
AcDb2dVertex
62
5
10
435.296983
20
483.083609
0
SEQEND
5
169
100
AcDbEntity
8
1
0
POLYLINE
5
16a
100
AcDbEntity
8
1
6
CONTINUOUS
62
5
100
AcDb2dPolyline
66
1
10
0.0
20
0.0
30
0.0
70
0
0
VERTEX
5
16b
100
AcDbEntity
8
1
100
AcDbVertex
100
AcDb2dVertex
62
5
10
433.837282
20
477.083609
0
VERTEX
5
16c
100
AcDbEntity
8
1
100
AcDbVertex
100
AcDb2dVertex
62
5
10
435.296983
20
477.083609
0
VERTEX
5
16d
100
AcDbEntity
8
1
100
AcDbVertex
100
AcDb2dVertex
62
5
10
435.496983
20
477.283609
0
VERTEX
5
16e
100
AcDbEntity
8
1
100
AcDbVertex
100
AcDb2dVertex
62
5
10
435.696983
20
477.283609
0
VERTEX
5
16f
100
AcDbEntity
8
1
100
AcDbVertex
100
AcDb2dVertex
62
5
10
435.696983
20
482.883609
0
VERTEX
5
170
100
AcDbEntity
8
1
100
AcDbVertex
100
AcDb2dVertex
62
5
10
435.496983
20
482.883609
0
VERTEX
5
171
100
AcDbEntity
8
1
100
AcDbVertex
100
AcDb2dVertex
62
5
10
435.296983
20
483.083609
0
VERTEX
5
172
100
AcDbEntity
8
1
100
AcDbVertex
100
AcDb2dVertex
62
5
10
433.837282
20
483.083609
0
SEQEND
5
173
100
AcDbEntity
8
1
0
LINE
5
174
100
AcDbEntity
8
1
100
AcDbLine
6
CONTINUOUS
62
5
10
409.637068
20
493.303614
11
403.637068
21
493.303614
0
POLYLINE
5
175
100
AcDbEntity
8
1
6
CONTINUOUS
62
5
100
AcDb2dPolyline
66
1
10
0.0
20
0.0
30
0.0
70
0
0
VERTEX
5
176
100
AcDbEntity
8
1
100
AcDbVertex
100
AcDb2dVertex
62
5
10
409.637068
20
494.903614
0
VERTEX
5
177
100
AcDbEntity
8
1
100
AcDbVertex
100
AcDb2dVertex
62
5
10
409.637068
20
492.703614
0
VERTEX
5
178
100
AcDbEntity
8
1
100
AcDbVertex
100
AcDb2dVertex
62
5
10
404.676299
20
492.703614
0
VERTEX
5
179
100
AcDbEntity
8
1
100
AcDbVertex
100
AcDb2dVertex
62
5
10
403.637068
20
493.303614
0
VERTEX
5
17a
100
AcDbEntity
8
1
100
AcDbVertex
100
AcDb2dVertex
62
5
10
403.637068
20
494.903614
0
SEQEND
5
17b
100
AcDbEntity
8
1
0
LINE
5
17c
100
AcDbEntity
8
1
100
AcDbLine
6
CONTINUOUS
62
5
10
394.737068
20
493.303614
11
391.037068
21
493.303614
0
POLYLINE
5
17d
100
AcDbEntity
8
1
6
CONTINUOUS
62
5
100
AcDb2dPolyline
66
1
10
0.0
20
0.0
30
0.0
70
0
0
VERTEX
5
17e
100
AcDbEntity
8
1
100
AcDbVertex
100
AcDb2dVertex
62
5
10
394.737068
20
494.903614
0
VERTEX
5
17f
100
AcDbEntity
8
1
100
AcDbVertex
100
AcDb2dVertex
62
5
10
394.737068
20
492.703614
0
VERTEX
5
180
100
AcDbEntity
8
1
100
AcDbVertex
100
AcDb2dVertex
62
5
10
392.076299
20
492.703614
0
VERTEX
5
181
100
AcDbEntity
8
1
100
AcDbVertex
100
AcDb2dVertex
62
5
10
391.037068
20
493.303614
0
VERTEX
5
182
100
AcDbEntity
8
1
100
AcDbVertex
100
AcDb2dVertex
62
5
10
391.037068
20
494.903614
0
SEQEND
5
183
100
AcDbEntity
8
1
0
LINE
5
184
100
AcDbEntity
8
1
100
AcDbLine
6
CONTINUOUS
62
5
10
403.637068
20
493.333614
11
394.737068
21
493.333614
0
LINE
5
185
100
AcDbEntity
8
1
100
AcDbLine
6
CONTINUOUS
62
5
10
394.737068
20
494.273614
11
403.637068
21
494.273614
0
LINE
5
186
100
AcDbEntity
8
1
100
AcDbLine
6
CONTINUOUS
62
5
10
399.836996
20
468.983613
11
399.836996
21
468.483613
0
LINE
5
187
100
AcDbEntity
8
1
100
AcDbLine
6
CONTINUOUS
62
5
10
390.937000
20
469.583613
11
390.937000
21
471.183612
0
LINE
5
188
100
AcDbEntity
8
1
100
AcDbLine
6
CONTINUOUS
62
5
10
396.736997
20
469.583613
11
396.736997
21
471.183612
0
LINE
5
189
100
AcDbEntity
8
1
100
AcDbLine
6
CONTINUOUS
62
5
10
390.937000
20
470.183613
11
396.736997
21
470.183613
0
LINE
5
18a
100
AcDbEntity
8
1
100
AcDbLine
6
CONTINUOUS
62
5
10
397.836997
20
468.983613
11
397.836997
21
466.583614
0
LINE
5
18b
100
AcDbEntity
8
1
100
AcDbLine
6
CONTINUOUS
62
5
10
389.837000
20
468.983613
11
389.837000
21
466.583614
0
LINE
5
18c
100
AcDbEntity
8
1
100
AcDbLine
6
CONTINUOUS
62
5
10
395.036998
20
466.583614
11
395.036998
21
469.583613
0
LINE
5
18d
100
AcDbEntity
8
1
100
AcDbLine
6
CONTINUOUS
62
5
10
392.636999
20
469.583613
11
392.636999
21
466.583614
0
LINE
5
18e
100
AcDbEntity
8
1
100
AcDbLine
6
DOT2
62
5
10
393.836999
20
470.511938
11
393.836999
21
465.685940
0
LINE
5
18f
100
AcDbEntity
8
1
100
AcDbLine
6
CONTINUOUS
62
5
10
378.831090
20
486.583606
11
378.831090
21
479.712871
0
CIRCLE
5
190
100
AcDbEntity
8
1
100
AcDbCircle
6
CONTINUOUS
62
5
10
379.237004
20
478.583609
40
1.200000
0
CIRCLE
5
191
100
AcDbEntity
8
1
100
AcDbCircle
6
CONTINUOUS
62
5
10
379.237004
20
478.583609
40
1.050000
0
LINE
5
192
100
AcDbEntity
8
1
100
AcDbLine
6
CONTINUOUS
62
5
10
379.675410
20
479.022015
11
378.798598
21
478.145203
0
LINE
5
193
100
AcDbEntity
8
1
100
AcDbLine
6
CONTINUOUS
62
5
10
379.675410
20
478.145203
11
378.798598
21
479.022015
0
LINE
5
194
100
AcDbEntity
8
1
100
AcDbLine
6
CONTINUOUS
62
5
10
369.737008
20
469.583613
11
369.737008
21
471.183612
0
LINE
5
195
100
AcDbEntity
8
1
100
AcDbLine
6
CONTINUOUS
62
5
10
370.837008
20
468.983613
11
370.837008
21
466.583614
0
LINE
5
196
100
AcDbEntity
8
1
100
AcDbLine
6
CONTINUOUS
62
5
10
368.037009
20
469.583613
11
368.037009
21
466.583614
0
LINE
5
197
100
AcDbEntity
8
1
100
AcDbLine
6
CONTINUOUS
62
5
10
378.831090
20
473.307967
11
378.831090
21
477.304210
0
LINE
5
198
100
AcDbEntity
8
1
100
AcDbLine
6
CONTINUOUS
62
5
10
419.236988
20
493.053614
11
409.637068
21
493.053614
0
LINE
5
199
100
AcDbEntity
8
1
100
AcDbLine
6
CONTINUOUS
62
5
10
409.637068
20
494.553614
11
417.635208
21
494.553614
0
LINE
5
19a
100
AcDbEntity
8
1
100
AcDbLine
6
CONTINUOUS
62
5
10
416.637068
20
495.303614
11
391.037068
21
495.303614
0
ARC
5
19b
100
AcDbEntity
8
1
100
AcDbCircle
6
CONTINUOUS
62
5
10
416.437004
20
480.983604
40
0.400000
100
AcDbArc
50
-89.999999
51
0.000000
0
POLYLINE
5
19c
100
AcDbEntity
8
1
6
CONTINUOUS
62
5
100
AcDb2dPolyline
66
1
10
0.0
20
0.0
30
0.0
70
0
0
VERTEX
5
19d
100
AcDbEntity
8
1
100
AcDbVertex
100
AcDb2dVertex
62
5
10
416.837004
20
480.983604
0
VERTEX
5
19e
100
AcDbEntity
8
1
100
AcDbVertex
100
AcDb2dVertex
62
5
10
416.837004
20
490.783604
0
VERTEX
5
19f
100
AcDbEntity
8
1
100
AcDbVertex
100
AcDb2dVertex
62
5
10
380.237004
20
490.783604
0
VERTEX
5
1a0
100
AcDbEntity
8
1
100
AcDbVertex
100
AcDb2dVertex
62
5
10
380.237004
20
481.583604
0
SEQEND
5
1a1
100
AcDbEntity
8
1
0
ARC
5
1a2
100
AcDbEntity
8
1
100
AcDbCircle
6
CONTINUOUS
62
5
10
381.237004
20
481.583604
40
1.000000
100
AcDbArc
50
179.999998
51
-89.999999
0
LINE
5
1a3
100
AcDbEntity
8
1
100
AcDbLine
6
CONTINUOUS
62
5
10
381.237004
20
480.583604
11
416.437004
21
480.583604
0
LINE
5
1a4
100
AcDbEntity
8
1
100
AcDbLine
6
CONTINUOUS
62
5
10
416.494605
20
498.303615
11
416.494605
21
496.303616
0
POLYLINE
5
1a5
100
AcDbEntity
8
1
6
CONTINUOUS
62
5
100
AcDb2dPolyline
66
1
10
0.0
20
0.0
30
0.0
70
1
0
VERTEX
5
1a6
100
AcDbEntity
8
1
100
AcDbVertex
100
AcDb2dVertex
62
5
10
417.635208
20
498.303615
0
VERTEX
5
1a7
100
AcDbEntity
8
1
100
AcDbVertex
100
AcDb2dVertex
62
5
10
416.494605
20
498.303615
0
VERTEX
5
1a8
100
AcDbEntity
8
1
100
AcDbVertex
100
AcDb2dVertex
62
5
10
416.435208
20
498.244218
0
VERTEX
5
1a9
100
AcDbEntity
8
1
100
AcDbVertex
100
AcDb2dVertex
62
5
10
416.435208
20
496.363012
0
VERTEX
5
1aa
100
AcDbEntity
8
1
100
AcDbVertex
100
AcDb2dVertex
62
5
10
416.494605
20
496.303616
0
VERTEX
5
1ab
100
AcDbEntity
8
1
100
AcDbVertex
100
AcDb2dVertex
62
5
10
417.635208
20
496.303616
0
VERTEX
5
1ac
100
AcDbEntity
8
1
100
AcDbVertex
100
AcDb2dVertex
62
5
10
417.635208
20
498.303615
0
SEQEND
5
1ad
100
AcDbEntity
8
1
0
LINE
5
1ae
100
AcDbEntity
8
1
100
AcDbLine
6
CONTINUOUS
62
5
10
416.637068
20
496.303616
11
416.637068
21
495.338914
0
LINE
5
1af
100
AcDbEntity
8
1
100
AcDbLine
6
CONTINUOUS
62
5
10
415.876666
20
495.338914
11
415.876666
21
496.738914
0
POLYLINE
5
1b0
100
AcDbEntity
8
1
6
CONTINUOUS
62
5
100
AcDb2dPolyline
66
1
10
0.0
20
0.0
30
0.0
70
0
0
VERTEX
5
1b1
100
AcDbEntity
8
1
100
AcDbVertex
100
AcDb2dVertex
62
5
10
416.637068
20
495.338914
0
VERTEX
5
1b2
100
AcDbEntity
8
1
100
AcDbVertex
100
AcDb2dVertex
62
5
10
415.876666
20
495.338914
0
VERTEX
5
1b3
100
AcDbEntity
8
1
100
AcDbVertex
100
AcDb2dVertex
62
5
10
415.837068
20
495.378512
0
VERTEX
5
1b4
100
AcDbEntity
8
1
100
AcDbVertex
100
AcDb2dVertex
62
5
10
415.837068
20
496.699316
0
VERTEX
5
1b5
100
AcDbEntity
8
1
100
AcDbVertex
100
AcDb2dVertex
62
5
10
415.876666
20
496.738914
0
VERTEX
5
1b6
100
AcDbEntity
8
1
100
AcDbVertex
100
AcDb2dVertex
62
5
10
416.435208
20
496.738914
0
SEQEND
5
1b7
100
AcDbEntity
8
1
0
LINE
5
1b8
100
AcDbEntity
8
1
100
AcDbLine
6
CONTINUOUS
62
5
10
416.637068
20
496.303616
11
416.637068
21
494.903614
0
LINE
5
1b9
100
AcDbEntity
8
1
100
AcDbLine
6
CONTINUOUS
62
5
10
401.504795
20
505.703614
11
401.504795
21
494.903614
0
LINE
5
1ba
100
AcDbEntity
8
1
100
AcDbLine
6
CONTINUOUS
62
5
10
395.504795
20
494.903614
11
395.504795
21
505.703614
0
POLYLINE
5
1bb
100
AcDbEntity
8
1
6
CONTINUOUS
62
5
100
AcDb2dPolyline
66
1
10
0.0
20
0.0
30
0.0
70
0
0
VERTEX
5
1bc
100
AcDbEntity
8
1
100
AcDbVertex
100
AcDb2dVertex
62
5
10
416.637068
20
496.303616
0
VERTEX
5
1bd
100
AcDbEntity
8
1
100
AcDbVertex
100
AcDb2dVertex
62
5
10
416.637068
20
494.903614
0
VERTEX
5
1be
100
AcDbEntity
8
1
100
AcDbVertex
100
AcDb2dVertex
62
5
10
391.037068
20
494.903614
0
VERTEX
5
1bf
100
AcDbEntity
8
1
100
AcDbVertex
100
AcDb2dVertex
62
5
10
391.037068
20
505.703614
0
VERTEX
5
1c0
100
AcDbEntity
8
1
100
AcDbVertex
100
AcDb2dVertex
62
5
10
416.637068
20
505.703614
0
VERTEX
5
1c1
100
AcDbEntity
8
1
100
AcDbVertex
100
AcDb2dVertex
62
5
10
416.637068
20
504.303612
0
SEQEND
5
1c2
100
AcDbEntity
8
1
0
POLYLINE
5
1c3
100
AcDbEntity
8
1
6
CONTINUOUS
62
5
100
AcDb2dPolyline
66
1
10
0.0
20
0.0
30
0.0
70
1
0
VERTEX
5
1c4
100
AcDbEntity
8
1
100
AcDbVertex
100
AcDb2dVertex
62
5
10
417.635208
20
494.303616
0
VERTEX
5
1c5
100
AcDbEntity
8
1
100
AcDbVertex
100
AcDb2dVertex
62
5
10
418.835207
20
494.303616
0
VERTEX
5
1c6
100
AcDbEntity
8
1
100
AcDbVertex
100
AcDb2dVertex
62
5
10
418.835207
20
506.303612
0
VERTEX
5
1c7
100
AcDbEntity
8
1
100
AcDbVertex
100
AcDb2dVertex
62
5
10
417.635208
20
506.303612
0
SEQEND
5
1c8
100
AcDbEntity
8
1
0
POLYLINE
5
1c9
100
AcDbEntity
8
1
6
CONTINUOUS
62
5
100
AcDb2dPolyline
66
1
10
0.0
20
0.0
30
0.0
70
1
0
VERTEX
5
1ca
100
AcDbEntity
8
1
100
AcDbVertex
100
AcDb2dVertex
62
5
10
419.236988
20
494.083603
0
VERTEX
5
1cb
100
AcDbEntity
8
1
100
AcDbVertex
100
AcDb2dVertex
62
5
10
419.236988
20
507.083598
0
VERTEX
5
1cc
100
AcDbEntity
8
1
100
AcDbVertex
100
AcDb2dVertex
62
5
10
418.836989
20
507.083598
0
VERTEX
5
1cd
100
AcDbEntity
8
1
100
AcDbVertex
100
AcDb2dVertex
62
5
10
418.837915
20
494.083603
0
SEQEND
5
1ce
100
AcDbEntity
8
1
0
ARC
5
1cf
100
AcDbEntity
8
1
100
AcDbCircle
6
CONTINUOUS
62
5
10
418.836989
20
490.983604
40
0.400000
100
AcDbArc
50
-89.999999
51
0.000000
0
LINE
5
1d0
100
AcDbEntity
8
1
100
AcDbLine
6
CONTINUOUS
62
5
10
418.836989
20
490.583604
11
417.736989
21
490.583604
0
ARC
5
1d1
100
AcDbEntity
8
1
100
AcDbCircle
6
CONTINUOUS
62
5
10
417.736989
20
490.283604
40
0.300000
100
AcDbArc
50
89.999999
51
179.999998
0
POLYLINE
5
1d2
100
AcDbEntity
8
1
6
CONTINUOUS
62
5
100
AcDb2dPolyline
66
1
10
0.0
20
0.0
30
0.0
70
0
0
VERTEX
5
1d3
100
AcDbEntity
8
1
100
AcDbVertex
100
AcDb2dVertex
62
5
10
417.436989
20
490.283604
0
VERTEX
5
1d4
100
AcDbEntity
8
1
100
AcDbVertex
100
AcDb2dVertex
62
5
10
417.436989
20
490.283604
0
VERTEX
5
1d5
100
AcDbEntity
8
1
100
AcDbVertex
100
AcDb2dVertex
62
5
10
416.836989
20
490.283604
0
VERTEX
5
1d6
100
AcDbEntity
8
1
100
AcDbVertex
100
AcDb2dVertex
62
5
10
416.836989
20
469.383613
0
VERTEX
5
1d7
100
AcDbEntity
8
1
100
AcDbVertex
100
AcDb2dVertex
62
5
10
417.436989
20
469.383613
0
VERTEX
5
1d8
100
AcDbEntity
8
1
100
AcDbVertex
100
AcDb2dVertex
62
5
10
417.436989
20
469.383613
0
SEQEND
5
1d9
100
AcDbEntity
8
1
0
ARC
5
1da
100
AcDbEntity
8
1
100
AcDbCircle
6
CONTINUOUS
62
5
10
417.736989
20
469.383613
40
0.300000
100
AcDbArc
50
179.999998
51
-89.999999
0
POLYLINE
5
1db
100
AcDbEntity
8
1
6
CONTINUOUS
62
5
100
AcDb2dPolyline
66
1
10
0.0
20
0.0
30
0.0
70
0
0
VERTEX
5
1dc
100
AcDbEntity
8
1
100
AcDbVertex
100
AcDb2dVertex
62
5
10
417.736989
20
469.083613
0
VERTEX
5
1dd
100
AcDbEntity
8
1
100
AcDbVertex
100
AcDb2dVertex
62
5
10
433.736983
20
469.083613
0
VERTEX
5
1de
100
AcDbEntity
8
1
100
AcDbVertex
100
AcDb2dVertex
62
5
10
433.836983
20
469.183613
0
VERTEX
5
1df
100
AcDbEntity
8
1
100
AcDbVertex
100
AcDb2dVertex
62
5
10
433.836983
20
508.983597
0
VERTEX
5
1e0
100
AcDbEntity
8
1
100
AcDbVertex
100
AcDb2dVertex
62
5
10
433.736983
20
509.083597
0
VERTEX
5
1e1
100
AcDbEntity
8
1
100
AcDbVertex
100
AcDb2dVertex
62
5
10
419.536988
20
509.083597
0
SEQEND
5
1e2
100
AcDbEntity
8
1
0
ARC
5
1e3
100
AcDbEntity
8
1
100
AcDbCircle
6
CONTINUOUS
62
5
10
419.536988
20
508.783597
40
0.300000
100
AcDbArc
50
89.999999
51
179.999998
0
LINE
5
1e4
100
AcDbEntity
8
1
100
AcDbLine
6
CONTINUOUS
62
5
10
419.236988
20
508.783597
11
419.236988
21
490.983604
0
LINE
5
1e5
100
AcDbEntity
8
1
100
AcDbLine
6
CONTINUOUS
62
5
10
361.162924
20
559.392948
11
361.373393
21
559.715376
0
ARC
5
1e6
100
AcDbEntity
8
1
100
AcDbCircle
6
CONTINUOUS
62
5
10
360.660695
20
561.274255
40
0.600000
100
AcDbArc
50
-89.999999
51
-3.000000
0
LINE
5
1e7
100
AcDbEntity
8
1
100
AcDbLine
6
DOT2
62
5
10
358.177016
20
559.574245
11
360.362365
21
559.574245
0
LINE
5
1e8
100
AcDbEntity
8
1
100
AcDbLine
6
CONTINUOUS
62
5
10
361.282482
20
561.674255
11
361.272015
21
561.474529
0
LINE
5
1e9
100
AcDbEntity
8
1
100
AcDbLine
6
CONTINUOUS
62
5
10
363.936842
20
564.774255
11
363.937018
21
561.914781
0
ARC
5
1ea
100
AcDbEntity
8
1
100
AcDbCircle
6
CONTINUOUS
62
5
10
366.837016
20
562.674255
40
1.200000
100
AcDbArc
50
179.999998
51
-150.477420
0
POLYLINE
5
1eb
100
AcDbEntity
8
1
6
CONTINUOUS
62
5
100
AcDb2dPolyline
66
1
10
0.0
20
0.0
30
0.0
70
0
0
VERTEX
5
1ec
100
AcDbEntity
8
1
100
AcDbVertex
100
AcDb2dVertex
62
5
10
361.282482
20
561.674255
0
VERTEX
5
1ed
100
AcDbEntity
8
1
100
AcDbVertex
100
AcDb2dVertex
62
5
10
361.367956
20
563.305195
0
VERTEX
5
1ee
100
AcDbEntity
8
1
100
AcDbVertex
100
AcDb2dVertex
62
5
10
362.837016
20
564.774255
0
VERTEX
5
1ef
100
AcDbEntity
8
1
100
AcDbVertex
100
AcDb2dVertex
62
5
10
365.637016
20
564.774255
0
VERTEX
5
1f0
100
AcDbEntity
8
1
100
AcDbVertex
100
AcDb2dVertex
62
5
10
365.637016
20
562.674255
0
SEQEND
5
1f1
100
AcDbEntity
8
1
0
LINE
5
1f2
100
AcDbEntity
8
1
100
AcDbLine
6
DOT2
62
5
10
353.437016
20
556.674255
11
351.037016
21
556.674255
0
LINE
5
1f3
100
AcDbEntity
8
1
100
AcDbLine
6
DOT2
62
5
10
358.177016
20
546.774245
11
360.166980
21
546.774245
0
ARC
5
1f4
100
AcDbEntity
8
1
100
AcDbCircle
6
CONTINUOUS
62
5
10
360.660695
20
545.074255
40
0.600000
100
AcDbArc
50
3.000000
51
89.999999
0
LINE
5
1f5
100
AcDbEntity
8
1
100
AcDbLine
6
CONTINUOUS
62
5
10
361.162924
20
546.955561
11
361.373393
21
546.633134
0
LINE
5
1f6
100
AcDbEntity
8
1
100
AcDbLine
6
DOT2
62
5
10
361.373393
20
546.633134
11
361.177666
21
546.674255
0
LINE
5
1f7
100
AcDbEntity
8
1
100
AcDbLine
6
DOT2
62
5
10
361.481666
20
544.656207
11
361.282482
21
544.674255
0
LINE
5
1f8
100
AcDbEntity
8
1
100
AcDbLine
6
CONTINUOUS
62
5
10
361.270133
20
544.909894
11
361.282482
21
544.674255
0
LINE
5
1f9
100
AcDbEntity
8
1
100
AcDbLine
6
CONTINUOUS
62
5
10
363.937016
20
541.574255
11
363.937016
21
544.433728
0
ARC
5
1fa
100
AcDbEntity
8
1
100
AcDbCircle
6
CONTINUOUS
62
5
10
366.837016
20
543.674255
40
1.200000
100
AcDbArc
50
150.477420
51
179.999998
0
POLYLINE
5
1fb
100
AcDbEntity
8
1
6
CONTINUOUS
62
5
100
AcDb2dPolyline
66
1
10
0.0
20
0.0
30
0.0
70
0
0
VERTEX
5
1fc
100
AcDbEntity
8
1
100
AcDbVertex
100
AcDb2dVertex
62
5
10
361.282482
20
544.674255
0
VERTEX
5
1fd
100
AcDbEntity
8
1
100
AcDbVertex
100
AcDb2dVertex
62
5
10
361.367956
20
543.043315
0
VERTEX
5
1fe
100
AcDbEntity
8
1
100
AcDbVertex
100
AcDb2dVertex
62
5
10
362.837016
20
541.574255
0
VERTEX
5
1ff
100
AcDbEntity
8
1
100
AcDbVertex
100
AcDb2dVertex
62
5
10
365.637016
20
541.574255
0
VERTEX
5
200
100
AcDbEntity
8
1
100
AcDbVertex
100
AcDb2dVertex
62
5
10
365.637016
20
543.674255
0
SEQEND
5
201
100
AcDbEntity
8
1
0
POLYLINE
5
202
100
AcDbEntity
8
1
6
CONTINUOUS
62
5
100
AcDb2dPolyline
66
1
10
0.0
20
0.0
30
0.0
70
0
0
VERTEX
5
203
100
AcDbEntity
8
1
100
AcDbVertex
100
AcDb2dVertex
62
5
10
351.637016
20
550.874255
0
VERTEX
5
204
100
AcDbEntity
8
1
100
AcDbVertex
100
AcDb2dVertex
62
5
10
351.037016
20
550.874255
0
VERTEX
5
205
100
AcDbEntity
8
1
100
AcDbVertex
100
AcDb2dVertex
62
5
10
350.837016
20
551.074255
0
VERTEX
5
206
100
AcDbEntity
8
1
100
AcDbVertex
100
AcDb2dVertex
62
5
10
350.837016
20
553.174255
0
SEQEND
5
207
100
AcDbEntity
8
1
0
LINE
5
208
100
AcDbEntity
8
1
100
AcDbLine
6
DOT2
62
5
10
353.437016
20
549.674255
11
351.037016
21
549.674255
0
LINE
5
209
100
AcDbEntity
8
1
100
AcDbLine
6
CONTINUOUS
62
5
10
351.037016
20
555.474255
11
351.037016
21
550.874255
0
POLYLINE
5
20a
100
AcDbEntity
8
1
6
CONTINUOUS
62
5
100
AcDb2dPolyline
66
1
10
0.0
20
0.0
30
0.0
70
0
0
VERTEX
5
20b
100
AcDbEntity
8
1
100
AcDbVertex
100
AcDb2dVertex
62
5
10
350.837016
20
553.174255
0
VERTEX
5
20c
100
AcDbEntity
8
1
100
AcDbVertex
100
AcDb2dVertex
62
5
10
350.837016
20
555.274255
0
VERTEX
5
20d
100
AcDbEntity
8
1
100
AcDbVertex
100
AcDb2dVertex
62
5
10
351.037016
20
555.474255
0
VERTEX
5
20e
100
AcDbEntity
8
1
100
AcDbVertex
100
AcDb2dVertex
62
5
10
351.637016
20
555.474255
0
SEQEND
5
20f
100
AcDbEntity
8
1
0
CIRCLE
5
210
100
AcDbEntity
8
1
100
AcDbCircle
6
CONTINUOUS
62
5
10
354.837016
20
553.174255
40
0.800000
0
LINE
5
211
100
AcDbEntity
8
1
100
AcDbLine
6
CONTINUOUS
62
5
10
363.337016
20
558.691430
11
363.337016
21
547.688996
0
POLYLINE
5
212
100
AcDbEntity
8
1
6
CONTINUOUS
62
5
100
AcDb2dPolyline
66
1
10
0.0
20
0.0
30
0.0
70
0
0
VERTEX
5
213
100
AcDbEntity
8
1
100
AcDbVertex
100
AcDb2dVertex
62
5
10
352.837016
20
556.024255
0
VERTEX
5
214
100
AcDbEntity
8
1
100
AcDbVertex
100
AcDb2dVertex
62
5
10
352.837016
20
557.654255
0
VERTEX
5
215
100
AcDbEntity
8
1
100
AcDbVertex
100
AcDb2dVertex
62
5
10
351.737016
20
557.654255
0
VERTEX
5
216
100
AcDbEntity
8
1
100
AcDbVertex
100
AcDb2dVertex
62
5
10
351.637016
20
557.574255
0
VERTEX
5
217
100
AcDbEntity
8
1
100
AcDbVertex
100
AcDb2dVertex
62
5
10
351.637016
20
548.794255
0
VERTEX
5
218
100
AcDbEntity
8
1
100
AcDbVertex
100
AcDb2dVertex
62
5
10
351.737016
20
548.694255
0
VERTEX
5
219
100
AcDbEntity
8
1
100
AcDbVertex
100
AcDb2dVertex
62
5
10
352.837016
20
548.694255
0
VERTEX
5
21a
100
AcDbEntity
8
1
100
AcDbVertex
100
AcDb2dVertex
62
5
10
352.837016
20
550.324255
0
SEQEND
5
21b
100
AcDbEntity
8
1
0
POLYLINE
5
21c
100
AcDbEntity
8
1
6
CONTINUOUS
62
5
100
AcDb2dPolyline
66
1
10
0.0
20
0.0
30
0.0
70
0
0
VERTEX
5
21d
100
AcDbEntity
8
1
100
AcDbVertex
100
AcDb2dVertex
62
5
10
358.837016
20
557.674255
0
VERTEX
5
21e
100
AcDbEntity
8
1
100
AcDbVertex
100
AcDb2dVertex
62
5
10
352.897016
20
557.674255
0
VERTEX
5
21f
100
AcDbEntity
8
1
100
AcDbVertex
100
AcDb2dVertex
62
5
10
352.837016
20
557.614255
0
VERTEX
5
220
100
AcDbEntity
8
1
100
AcDbVertex
100
AcDb2dVertex
62
5
10
352.837016
20
548.734255
0
VERTEX
5
221
100
AcDbEntity
8
1
100
AcDbVertex
100
AcDb2dVertex
62
5
10
352.897016
20
548.674255
0
VERTEX
5
222
100
AcDbEntity
8
1
100
AcDbVertex
100
AcDb2dVertex
62
5
10
358.837016
20
548.674255
0
SEQEND
5
223
100
AcDbEntity
8
1
0
POLYLINE
5
224
100
AcDbEntity
8
1
6
CONTINUOUS
62
5
100
AcDb2dPolyline
66
1
10
0.0
20
0.0
30
0.0
70
1
0
VERTEX
5
225
100
AcDbEntity
8
1
100
AcDbVertex
100
AcDb2dVertex
62
5
10
359.037016
20
545.674245
0
VERTEX
5
226
100
AcDbEntity
8
1
100
AcDbVertex
100
AcDb2dVertex
62
5
10
359.837016
20
545.674245
0
VERTEX
5
227
100
AcDbEntity
8
1
100
AcDbVertex
100
AcDb2dVertex
62
5
10
359.837016
20
560.674245
0
VERTEX
5
228
100
AcDbEntity
8
1
100
AcDbVertex
100
AcDb2dVertex
62
5
10
359.037016
20
560.674245
0
VERTEX
5
229
100
AcDbEntity
8
1
100
AcDbVertex
100
AcDb2dVertex
62
5
10
358.837016
20
560.474245
0
VERTEX
5
22a
100
AcDbEntity
8
1
100
AcDbVertex
100
AcDb2dVertex
62
5
10
358.837016
20
545.874245
0
SEQEND
5
22b
100
AcDbEntity
8
1
0
POLYLINE
5
22c
100
AcDbEntity
8
1
6
CONTINUOUS
62
5
100
AcDb2dPolyline
66
1
10
0.0
20
0.0
30
0.0
70
0
0
VERTEX
5
22d
100
AcDbEntity
8
1
100
AcDbVertex
100
AcDb2dVertex
62
5
10
360.660695
20
560.674255
0
VERTEX
5
22e
100
AcDbEntity
8
1
100
AcDbVertex
100
AcDb2dVertex
62
5
10
359.835692
20
560.674255
0
VERTEX
5
22f
100
AcDbEntity
8
1
100
AcDbVertex
100
AcDb2dVertex
62
5
10
359.838339
20
545.674255
0
VERTEX
5
230
100
AcDbEntity
8
1
100
AcDbVertex
100
AcDb2dVertex
62
5
10
360.660695
20
545.674255
0
SEQEND
5
231
100
AcDbEntity
8
1
0
CIRCLE
5
232
100
AcDbEntity
8
1
100
AcDbCircle
6
CONTINUOUS
62
5
10
300.094874
20
504.546250
40
0.790000
0
CIRCLE
5
233
100
AcDbEntity
8
1
100
AcDbCircle
6
CONTINUOUS
62
5
10
300.094874
20
504.546250
40
0.850000
0
POLYLINE
5
234
100
AcDbEntity
8
1
6
CONTINUOUS
62
5
100
AcDb2dPolyline
66
1
10
0.0
20
0.0
30
0.0
70
1
0
VERTEX
5
235
100
AcDbEntity
8
1
100
AcDbVertex
100
AcDb2dVertex
62
5
10
300.094874
20
505.008130
0
VERTEX
5
236
100
AcDbEntity
8
1
100
AcDbVertex
100
AcDb2dVertex
62
5
10
300.494874
20
504.777190
0
VERTEX
5
237
100
AcDbEntity
8
1
100
AcDbVertex
100
AcDb2dVertex
62
5
10
300.494874
20
504.315310
0
VERTEX
5
238
100
AcDbEntity
8
1
100
AcDbVertex
100
AcDb2dVertex
62
5
10
300.094874
20
504.084370
0
VERTEX
5
239
100
AcDbEntity
8
1
100
AcDbVertex
100
AcDb2dVertex
62
5
10
299.694874
20
504.315310
0
VERTEX
5
23a
100
AcDbEntity
8
1
100
AcDbVertex
100
AcDb2dVertex
62
5
10
299.694874
20
504.777190
0
VERTEX
5
23b
100
AcDbEntity
8
1
100
AcDbVertex
100
AcDb2dVertex
62
5
10
300.094874
20
505.008130
0
SEQEND
5
23c
100
AcDbEntity
8
1
0
ARC
5
23d
100
AcDbEntity
8
1
100
AcDbCircle
6
CONTINUOUS
62
5
10
303.852234
20
498.303609
40
0.700000
100
AcDbArc
50
0.000000
51
-179.999998
0
CIRCLE
5
23e
100
AcDbEntity
8
1
100
AcDbCircle
6
CONTINUOUS
62
5
10
303.852234
20
497.583609
40
0.920000
0
CIRCLE
5
23f
100
AcDbEntity
8
1
100
AcDbCircle
6
CONTINUOUS
62
5
10
303.852234
20
497.583609
40
1.000000
0
POLYLINE
5
240
100
AcDbEntity
8
1
6
CONTINUOUS
62
5
100
AcDb2dPolyline
66
1
10
0.0
20
0.0
30
0.0
70
1
0
VERTEX
5
241
100
AcDbEntity
8
1
100
AcDbVertex
100
AcDb2dVertex
62
5
10
303.852234
20
498.160959
0
VERTEX
5
242
100
AcDbEntity
8
1
100
AcDbVertex
100
AcDb2dVertex
62
5
10
304.352234
20
497.872284
0
VERTEX
5
243
100
AcDbEntity
8
1
100
AcDbVertex
100
AcDb2dVertex
62
5
10
304.352234
20
497.294934
0
VERTEX
5
244
100
AcDbEntity
8
1
100
AcDbVertex
100
AcDb2dVertex
62
5
10
303.852234
20
497.006259
0
VERTEX
5
245
100
AcDbEntity
8
1
100
AcDbVertex
100
AcDb2dVertex
62
5
10
303.352234
20
497.294934
0
VERTEX
5
246
100
AcDbEntity
8
1
100
AcDbVertex
100
AcDb2dVertex
62
5
10
303.352234
20
497.872284
0
VERTEX
5
247
100
AcDbEntity
8
1
100
AcDbVertex
100
AcDb2dVertex
62
5
10
303.852234
20
498.160959
0
SEQEND
5
248
100
AcDbEntity
8
1
0
ARC
5
249
100
AcDbEntity
8
1
100
AcDbCircle
6
CONTINUOUS
62
5
10
303.852234
20
504.303609
40
0.700000
100
AcDbArc
50
0.000000
51
179.999998
0
ARC
5
24a
100
AcDbEntity
8
1
100
AcDbCircle
6
CONTINUOUS
62
5
10
303.852234
20
502.303609
40
0.700000
100
AcDbArc
50
179.999998
51
0.000000
0
LINE
5
24b
100
AcDbEntity
8
1
100
AcDbLine
6
CONTINUOUS
62
5
10
303.152234
20
502.303609
11
303.152234
21
502.869466
0
LINE
5
24c
100
AcDbEntity
8
1
100
AcDbLine
6
CONTINUOUS
62
5
10
304.552234
20
502.869466
11
304.552234
21
502.303609
0
CIRCLE
5
24d
100
AcDbEntity
8
1
100
AcDbCircle
6
CONTINUOUS
62
5
10
303.852234
20
503.583609
40
0.920000
0
CIRCLE
5
24e
100
AcDbEntity
8
1
100
AcDbCircle
6
CONTINUOUS
62
5
10
303.852234
20
503.583609
40
1.000000
0
POLYLINE
5
24f
100
AcDbEntity
8
1
6
CONTINUOUS
62
5
100
AcDb2dPolyline
66
1
10
0.0
20
0.0
30
0.0
70
1
0
VERTEX
5
250
100
AcDbEntity
8
1
100
AcDbVertex
100
AcDb2dVertex
62
5
10
303.852234
20
504.160959
0
VERTEX
5
251
100
AcDbEntity
8
1
100
AcDbVertex
100
AcDb2dVertex
62
5
10
304.352234
20
503.872284
0
VERTEX
5
252
100
AcDbEntity
8
1
100
AcDbVertex
100
AcDb2dVertex
62
5
10
304.352234
20
503.294934
0
VERTEX
5
253
100
AcDbEntity
8
1
100
AcDbVertex
100
AcDb2dVertex
62
5
10
303.852234
20
503.006259
0
VERTEX
5
254
100
AcDbEntity
8
1
100
AcDbVertex
100
AcDb2dVertex
62
5
10
303.352234
20
503.294934
0
VERTEX
5
255
100
AcDbEntity
8
1
100
AcDbVertex
100
AcDb2dVertex
62
5
10
303.352234
20
503.872284
0
VERTEX
5
256
100
AcDbEntity
8
1
100
AcDbVertex
100
AcDb2dVertex
62
5
10
303.852234
20
504.160959
0
SEQEND
5
257
100
AcDbEntity
8
1
0
ARC
5
258
100
AcDbEntity
8
1
100
AcDbCircle
6
CONTINUOUS
62
5
10
303.852234
20
505.583609
40
1.500000
100
AcDbArc
50
0.000000
51
151.314597
0
ARC
5
259
100
AcDbEntity
8
1
100
AcDbCircle
6
CONTINUOUS
62
5
10
287.852234
20
498.303609
40
0.700000
100
AcDbArc
50
-0.000000
51
179.999998
0
ARC
5
25a
100
AcDbEntity
8
1
100
AcDbCircle
6
CONTINUOUS
62
5
10
287.852234
20
502.303609
40
0.700000
100
AcDbArc
50
179.999998
51
0.000000
0
LINE
5
25b
100
AcDbEntity
8
1
100
AcDbLine
6
CONTINUOUS
62
5
10
288.552234
20
502.303609
11
288.552234
21
502.869466
0
LINE
5
25c
100
AcDbEntity
8
1
100
AcDbLine
6
CONTINUOUS
62
5
10
287.152234
20
502.869466
11
287.152234
21
502.303609
0
CIRCLE
5
25d
100
AcDbEntity
8
1
100
AcDbCircle
6
CONTINUOUS
62
5
10
291.609593
20
504.546250
40
0.790000
0
CIRCLE
5
25e
100
AcDbEntity
8
1
100
AcDbCircle
6
CONTINUOUS
62
5
10
291.609593
20
504.546250
40
0.850000
0
POLYLINE
5
25f
100
AcDbEntity
8
1
6
CONTINUOUS
62
5
100
AcDb2dPolyline
66
1
10
0.0
20
0.0
30
0.0
70
1
0
VERTEX
5
260
100
AcDbEntity
8
1
100
AcDbVertex
100
AcDb2dVertex
62
5
10
291.609593
20
505.008130
0
VERTEX
5
261
100
AcDbEntity
8
1
100
AcDbVertex
100
AcDb2dVertex
62
5
10
292.009593
20
504.777190
0
VERTEX
5
262
100
AcDbEntity
8
1
100
AcDbVertex
100
AcDb2dVertex
62
5
10
292.009593
20
504.315310
0
VERTEX
5
263
100
AcDbEntity
8
1
100
AcDbVertex
100
AcDb2dVertex
62
5
10
291.609593
20
504.084370
0
VERTEX
5
264
100
AcDbEntity
8
1
100
AcDbVertex
100
AcDb2dVertex
62
5
10
291.209593
20
504.315310
0
VERTEX
5
265
100
AcDbEntity
8
1
100
AcDbVertex
100
AcDb2dVertex
62
5
10
291.209593
20
504.777190
0
VERTEX
5
266
100
AcDbEntity
8
1
100
AcDbVertex
100
AcDb2dVertex
62
5
10
291.609593
20
505.008130
0
SEQEND
5
267
100
AcDbEntity
8
1
0
ARC
5
268
100
AcDbEntity
8
1
100
AcDbCircle
6
CONTINUOUS
62
5
10
287.852234
20
504.303609
40
0.700000
100
AcDbArc
50
0.000000
51
179.999998
0
ARC
5
269
100
AcDbEntity
8
1
100
AcDbCircle
6
CONTINUOUS
62
5
10
291.609593
20
504.546250
40
0.900000
100
AcDbArc
50
-89.999999
51
0.000000
0
POLYLINE
5
26a
100
AcDbEntity
8
1
6
CONTINUOUS
62
5
100
AcDb2dPolyline
66
1
10
0.0
20
0.0
30
0.0
70
0
0
VERTEX
5
26b
100
AcDbEntity
8
1
100
AcDbVertex
100
AcDb2dVertex
62
5
10
291.609593
20
503.646250
0
VERTEX
5
26c
100
AcDbEntity
8
1
100
AcDbVertex
100
AcDb2dVertex
62
5
10
290.852234
20
503.646250
0
VERTEX
5
26d
100
AcDbEntity
8
1
100
AcDbVertex
100
AcDb2dVertex
62
5
10
290.452234
20
503.246250
0
VERTEX
5
26e
100
AcDbEntity
8
1
100
AcDbVertex
100
AcDb2dVertex
62
5
10
290.452234
20
502.653904
0
SEQEND
5
26f
100
AcDbEntity
8
1
0
POLYLINE
5
270
100
AcDbEntity
8
1
6
CONTINUOUS
62
5
100
AcDb2dPolyline
66
1
10
0.0
20
0.0
30
0.0
70
0
0
VERTEX
5
271
100
AcDbEntity
8
1
100
AcDbVertex
100
AcDb2dVertex
62
5
10
293.391718
20
505.703609
0
VERTEX
5
272
100
AcDbEntity
8
1
100
AcDbVertex
100
AcDb2dVertex
62
5
10
292.909593
20
505.703609
0
VERTEX
5
273
100
AcDbEntity
8
1
100
AcDbVertex
100
AcDb2dVertex
62
5
10
292.509593
20
505.303609
0
VERTEX
5
274
100
AcDbEntity
8
1
100
AcDbVertex
100
AcDb2dVertex
62
5
10
292.509593
20
504.546250
0
SEQEND
5
275
100
AcDbEntity
8
1
0
ARC
5
276
100
AcDbEntity
8
1
100
AcDbCircle
6
CONTINUOUS
62
5
10
287.852234
20
505.583609
40
1.500000
100
AcDbArc
50
28.685402
51
179.999998
0
CIRCLE
5
277
100
AcDbEntity
8
1
100
AcDbCircle
6
CONTINUOUS
62
5
10
287.852234
20
497.583609
40
0.920000
0
CIRCLE
5
278
100
AcDbEntity
8
1
100
AcDbCircle
6
CONTINUOUS
62
5
10
287.852234
20
497.583609
40
1.000000
0
POLYLINE
5
279
100
AcDbEntity
8
1
6
CONTINUOUS
62
5
100
AcDb2dPolyline
66
1
10
0.0
20
0.0
30
0.0
70
1
0
VERTEX
5
27a
100
AcDbEntity
8
1
100
AcDbVertex
100
AcDb2dVertex
62
5
10
287.852234
20
498.160959
0
VERTEX
5
27b
100
AcDbEntity
8
1
100
AcDbVertex
100
AcDb2dVertex
62
5
10
288.352234
20
497.872284
0
VERTEX
5
27c
100
AcDbEntity
8
1
100
AcDbVertex
100
AcDb2dVertex
62
5
10
288.352234
20
497.294934
0
VERTEX
5
27d
100
AcDbEntity
8
1
100
AcDbVertex
100
AcDb2dVertex
62
5
10
287.852234
20
497.006259
0
VERTEX
5
27e
100
AcDbEntity
8
1
100
AcDbVertex
100
AcDb2dVertex
62
5
10
287.352234
20
497.294934
0
VERTEX
5
27f
100
AcDbEntity
8
1
100
AcDbVertex
100
AcDb2dVertex
62
5
10
287.352234
20
497.872284
0
VERTEX
5
280
100
AcDbEntity
8
1
100
AcDbVertex
100
AcDb2dVertex
62
5
10
287.852234
20
498.160959
0
SEQEND
5
281
100
AcDbEntity
8
1
0
CIRCLE
5
282
100
AcDbEntity
8
1
100
AcDbCircle
6
CONTINUOUS
62
5
10
287.852234
20
503.583609
40
0.920000
0
CIRCLE
5
283
100
AcDbEntity
8
1
100
AcDbCircle
6
CONTINUOUS
62
5
10
287.852234
20
503.583609
40
1.000000
0
POLYLINE
5
284
100
AcDbEntity
8
1
6
CONTINUOUS
62
5
100
AcDb2dPolyline
66
1
10
0.0
20
0.0
30
0.0
70
1
0
VERTEX
5
285
100
AcDbEntity
8
1
100
AcDbVertex
100
AcDb2dVertex
62
5
10
287.852234
20
504.160959
0
VERTEX
5
286
100
AcDbEntity
8
1
100
AcDbVertex
100
AcDb2dVertex
62
5
10
288.352234
20
503.872284
0
VERTEX
5
287
100
AcDbEntity
8
1
100
AcDbVertex
100
AcDb2dVertex
62
5
10
288.352234
20
503.294934
0
VERTEX
5
288
100
AcDbEntity
8
1
100
AcDbVertex
100
AcDb2dVertex
62
5
10
287.852234
20
503.006259
0
VERTEX
5
289
100
AcDbEntity
8
1
100
AcDbVertex
100
AcDb2dVertex
62
5
10
287.352234
20
503.294934
0
VERTEX
5
28a
100
AcDbEntity
8
1
100
AcDbVertex
100
AcDb2dVertex
62
5
10
287.352234
20
503.872284
0
VERTEX
5
28b
100
AcDbEntity
8
1
100
AcDbVertex
100
AcDb2dVertex
62
5
10
287.852234
20
504.160959
0
SEQEND
5
28c
100
AcDbEntity
8
1
0
ARC
5
28d
100
AcDbEntity
8
1
100
AcDbCircle
6
CONTINUOUS
62
5
10
300.094874
20
504.546250
40
0.900000
100
AcDbArc
50
179.999998
51
-89.999999
0
POLYLINE
5
28e
100
AcDbEntity
8
1
6
CONTINUOUS
62
5
100
AcDb2dPolyline
66
1
10
0.0
20
0.0
30
0.0
70
0
0
VERTEX
5
28f
100
AcDbEntity
8
1
100
AcDbVertex
100
AcDb2dVertex
62
5
10
299.194874
20
504.546250
0
VERTEX
5
290
100
AcDbEntity
8
1
100
AcDbVertex
100
AcDb2dVertex
62
5
10
299.194874
20
505.303609
0
VERTEX
5
291
100
AcDbEntity
8
1
100
AcDbVertex
100
AcDb2dVertex
62
5
10
298.794874
20
505.703609
0
VERTEX
5
292
100
AcDbEntity
8
1
100
AcDbVertex
100
AcDb2dVertex
62
5
10
298.202529
20
505.703609
0
SEQEND
5
293
100
AcDbEntity
8
1
0
POLYLINE
5
294
100
AcDbEntity
8
1
6
CONTINUOUS
62
5
100
AcDb2dPolyline
66
1
10
0.0
20
0.0
30
0.0
70
0
0
VERTEX
5
295
100
AcDbEntity
8
1
100
AcDbVertex
100
AcDb2dVertex
62
5
10
301.252234
20
502.764125
0
VERTEX
5
296
100
AcDbEntity
8
1
100
AcDbVertex
100
AcDb2dVertex
62
5
10
301.252234
20
503.246250
0
VERTEX
5
297
100
AcDbEntity
8
1
100
AcDbVertex
100
AcDb2dVertex
62
5
10
300.852234
20
503.646250
0
VERTEX
5
298
100
AcDbEntity
8
1
100
AcDbVertex
100
AcDb2dVertex
62
5
10
300.094874
20
503.646250
0
SEQEND
5
299
100
AcDbEntity
8
1
0
LINE
5
29a
100
AcDbEntity
8
1
100
AcDbLine
6
DOT2
62
5
10
289.663102
20
500.303609
11
301.886852
21
500.303609
0
CIRCLE
5
29b
100
AcDbEntity
8
1
100
AcDbCircle
6
CONTINUOUS
62
5
10
364.237010
20
478.583609
40
1.200000
0
POLYLINE
5
29c
100
AcDbEntity
8
1
6
CONTINUOUS
62
5
100
AcDb2dPolyline
66
1
10
0.0
20
0.0
30
0.0
70
1
0
VERTEX
5
29d
100
AcDbEntity
8
1
100
AcDbVertex
100
AcDb2dVertex
62
5
10
365.037010
20
478.121729
0
VERTEX
5
29e
100
AcDbEntity
8
1
100
AcDbVertex
100
AcDb2dVertex
62
5
10
365.037010
20
479.045489
0
VERTEX
5
29f
100
AcDbEntity
8
1
100
AcDbVertex
100
AcDb2dVertex
62
5
10
364.237010
20
479.507369
0
VERTEX
5
2a0
100
AcDbEntity
8
1
100
AcDbVertex
100
AcDb2dVertex
62
5
10
363.437011
20
479.045489
0
VERTEX
5
2a1
100
AcDbEntity
8
1
100
AcDbVertex
100
AcDb2dVertex
62
5
10
363.437011
20
478.121729
0
VERTEX
5
2a2
100
AcDbEntity
8
1
100
AcDbVertex
100
AcDb2dVertex
62
5
10
364.237010
20
477.659849
0
SEQEND
5
2a3
100
AcDbEntity
8
1
0
CIRCLE
5
2a4
100
AcDbEntity
8
1
100
AcDbCircle
6
CONTINUOUS
62
5
10
364.237010
20
478.583609
40
0.800000
0
CIRCLE
5
2a5
100
AcDbEntity
8
1
100
AcDbCircle
6
CONTINUOUS
62
5
10
364.237010
20
478.583609
40
0.480000
0
CIRCLE
5
2a6
100
AcDbEntity
8
1
100
AcDbCircle
6
CONTINUOUS
62
5
10
364.237010
20
478.583609
40
0.100000
0
ARC
5
2a7
100
AcDbEntity
8
1
100
AcDbCircle
6
CONTINUOUS
62
5
10
360.237012
20
486.683606
40
0.600000
100
AcDbArc
50
-89.999999
51
0.000000
0
LINE
5
2a8
100
AcDbEntity
8
1
100
AcDbLine
6
DOT2
62
5
10
354.837013
20
483.757711
11
354.837013
21
480.201711
0
ARC
5
2a9
100
AcDbEntity
8
1
100
AcDbCircle
6
CONTINUOUS
62
5
10
360.237012
20
470.483612
40
0.600000
100
AcDbArc
50
0.000000
51
89.999999
0
LINE
5
2aa
100
AcDbEntity
8
1
100
AcDbLine
6
CONTINUOUS
62
5
10
363.937011
20
469.583613
11
363.937011
21
471.183612
0
LINE
5
2ab
100
AcDbEntity
8
1
100
AcDbLine
6
CONTINUOUS
62
5
10
362.837011
20
468.983613
11
362.837011
21
466.583614
0
LINE
5
2ac
100
AcDbEntity
8
1
100
AcDbLine
6
CONTINUOUS
62
5
10
365.637010
20
469.583613
11
365.637010
21
466.583614
0
POLYLINE
5
2ad
100
AcDbEntity
8
1
6
CONTINUOUS
62
5
100
AcDb2dPolyline
66
1
10
0.0
20
0.0
30
0.0
70
1
0
VERTEX
5
2ae
100
AcDbEntity
8
1
100
AcDbVertex
100
AcDb2dVertex
62
5
10
359.037013
20
471.083612
0
VERTEX
5
2af
100
AcDbEntity
8
1
100
AcDbVertex
100
AcDb2dVertex
62
5
10
359.837012
20
471.083612
0
VERTEX
5
2b0
100
AcDbEntity
8
1
100
AcDbVertex
100
AcDb2dVertex
62
5
10
359.837012
20
486.083606
0
VERTEX
5
2b1
100
AcDbEntity
8
1
100
AcDbVertex
100
AcDb2dVertex
62
5
10
359.037013
20
486.083606
0
VERTEX
5
2b2
100
AcDbEntity
8
1
100
AcDbVertex
100
AcDb2dVertex
62
5
10
358.837013
20
485.883606
0
VERTEX
5
2b3
100
AcDbEntity
8
1
100
AcDbVertex
100
AcDb2dVertex
62
5
10
358.837013
20
471.283612
0
SEQEND
5
2b4
100
AcDbEntity
8
1
0
POLYLINE
5
2b5
100
AcDbEntity
8
1
6
CONTINUOUS
62
5
100
AcDb2dPolyline
66
1
10
0.0
20
0.0
30
0.0
70
0
0
VERTEX
5
2b6
100
AcDbEntity
8
1
100
AcDbVertex
100
AcDb2dVertex
62
5
10
360.237012
20
486.083606
0
VERTEX
5
2b7
100
AcDbEntity
8
1
100
AcDbVertex
100
AcDb2dVertex
62
5
10
359.837012
20
486.083606
0
VERTEX
5
2b8
100
AcDbEntity
8
1
100
AcDbVertex
100
AcDb2dVertex
62
5
10
359.837012
20
471.083612
0
VERTEX
5
2b9
100
AcDbEntity
8
1
100
AcDbVertex
100
AcDb2dVertex
62
5
10
360.237012
20
471.083612
0
SEQEND
5
2ba
100
AcDbEntity
8
1
0
POLYLINE
5
2bb
100
AcDbEntity
8
1
6
CONTINUOUS
62
5
100
AcDb2dPolyline
66
1
10
0.0
20
0.0
30
0.0
70
1
0
VERTEX
5
2bc
100
AcDbEntity
8
1
100
AcDbVertex
100
AcDb2dVertex
62
5
10
352.837015
20
474.103611
0
VERTEX
5
2bd
100
AcDbEntity
8
1
100
AcDbVertex
100
AcDb2dVertex
62
5
10
351.737015
20
474.103611
0
VERTEX
5
2be
100
AcDbEntity
8
1
100
AcDbVertex
100
AcDb2dVertex
62
5
10
351.637015
20
474.203611
0
VERTEX
5
2bf
100
AcDbEntity
8
1
100
AcDbVertex
100
AcDb2dVertex
62
5
10
351.637015
20
482.963607
0
VERTEX
5
2c0
100
AcDbEntity
8
1
100
AcDbVertex
100
AcDb2dVertex
62
5
10
351.737015
20
483.063607
0
VERTEX
5
2c1
100
AcDbEntity
8
1
100
AcDbVertex
100
AcDb2dVertex
62
5
10
352.837015
20
483.063607
0
SEQEND
5
2c2
100
AcDbEntity
8
1
0
POLYLINE
5
2c3
100
AcDbEntity
8
1
6
CONTINUOUS
62
5
100
AcDb2dPolyline
66
1
10
0.0
20
0.0
30
0.0
70
0
0
VERTEX
5
2c4
100
AcDbEntity
8
1
100
AcDbVertex
100
AcDb2dVertex
62
5
10
358.837013
20
483.083607
0
VERTEX
5
2c5
100
AcDbEntity
8
1
100
AcDbVertex
100
AcDb2dVertex
62
5
10
352.897015
20
483.083607
0
VERTEX
5
2c6
100
AcDbEntity
8
1
100
AcDbVertex
100
AcDb2dVertex
62
5
10
352.837015
20
483.023607
0
SEQEND
5
2c7
100
AcDbEntity
8
1
0
POLYLINE
5
2c8
100
AcDbEntity
8
1
6
CONTINUOUS
62
5
100
AcDb2dPolyline
66
1
10
0.0
20
0.0
30
0.0
70
0
0
VERTEX
5
2c9
100
AcDbEntity
8
1
100
AcDbVertex
100
AcDb2dVertex
62
5
10
352.837015
20
474.143611
0
VERTEX
5
2ca
100
AcDbEntity
8
1
100
AcDbVertex
100
AcDb2dVertex
62
5
10
352.897015
20
474.083611
0
VERTEX
5
2cb
100
AcDbEntity
8
1
100
AcDbVertex
100
AcDb2dVertex
62
5
10
358.837013
20
474.083611
0
SEQEND
5
2cc
100
AcDbEntity
8
1
0
POLYLINE
5
2cd
100
AcDbEntity
8
1
6
CONTINUOUS
62
5
100
AcDb2dPolyline
66
1
10
0.0
20
0.0
30
0.0
70
0
0
VERTEX
5
2ce
100
AcDbEntity
8
1
100
AcDbVertex
100
AcDb2dVertex
62
5
10
351.637015
20
480.883608
0
VERTEX
5
2cf
100
AcDbEntity
8
1
100
AcDbVertex
100
AcDb2dVertex
62
5
10
351.037016
20
480.883608
0
VERTEX
5
2d0
100
AcDbEntity
8
1
100
AcDbVertex
100
AcDb2dVertex
62
5
10
350.837016
20
480.683608
0
VERTEX
5
2d1
100
AcDbEntity
8
1
100
AcDbVertex
100
AcDb2dVertex
62
5
10
350.837016
20
476.483610
0
VERTEX
5
2d2
100
AcDbEntity
8
1
100
AcDbVertex
100
AcDb2dVertex
62
5
10
351.037016
20
476.283610
0
VERTEX
5
2d3
100
AcDbEntity
8
1
100
AcDbVertex
100
AcDb2dVertex
62
5
10
351.637015
20
476.283610
0
SEQEND
5
2d4
100
AcDbEntity
8
1
0
POLYLINE
5
2d5
100
AcDbEntity
8
1
6
DASHDOT
62
5
100
AcDb2dPolyline
66
1
10
0.0
20
0.0
30
0.0
70
0
0
VERTEX
5
2d6
100
AcDbEntity
8
1
100
AcDbVertex
100
AcDb2dVertex
62
5
10
336.837015
20
474.103611
0
VERTEX
5
2d7
100
AcDbEntity
8
1
100
AcDbVertex
100
AcDb2dVertex
62
5
10
335.737015
20
474.103611
0
VERTEX
5
2d8
100
AcDbEntity
8
1
100
AcDbVertex
100
AcDb2dVertex
62
5
10
335.637015
20
474.203611
0
VERTEX
5
2d9
100
AcDbEntity
8
1
100
AcDbVertex
100
AcDb2dVertex
62
5
10
335.637015
20
482.963607
0
VERTEX
5
2da
100
AcDbEntity
8
1
100
AcDbVertex
100
AcDb2dVertex
62
5
10
335.737015
20
483.063607
0
VERTEX
5
2db
100
AcDbEntity
8
1
100
AcDbVertex
100
AcDb2dVertex
62
5
10
336.837015
20
483.063607
0
SEQEND
5
2dc
100
AcDbEntity
8
1
0
POLYLINE
5
2dd
100
AcDbEntity
8
1
6
DASHDOT
62
5
100
AcDb2dPolyline
66
1
10
0.0
20
0.0
30
0.0
70
0
0
VERTEX
5
2de
100
AcDbEntity
8
1
100
AcDbVertex
100
AcDb2dVertex
62
5
10
335.637015
20
480.883608
0
VERTEX
5
2df
100
AcDbEntity
8
1
100
AcDbVertex
100
AcDb2dVertex
62
5
10
335.037016
20
480.883608
0
VERTEX
5
2e0
100
AcDbEntity
8
1
100
AcDbVertex
100
AcDb2dVertex
62
5
10
334.837016
20
480.683608
0
VERTEX
5
2e1
100
AcDbEntity
8
1
100
AcDbVertex
100
AcDb2dVertex
62
5
10
334.837016
20
476.483610
0
VERTEX
5
2e2
100
AcDbEntity
8
1
100
AcDbVertex
100
AcDb2dVertex
62
5
10
335.037016
20
476.283610
0
VERTEX
5
2e3
100
AcDbEntity
8
1
100
AcDbVertex
100
AcDb2dVertex
62
5
10
335.637015
20
476.283610
0
SEQEND
5
2e4
100
AcDbEntity
8
1
0
LINE
5
2e5
100
AcDbEntity
8
1
100
AcDbLine
6
CONTINUOUS
62
5
10
301.352234
20
487.783609
11
303.052234
21
490.783539
0
ARC
5
2e6
100
AcDbEntity
8
1
100
AcDbCircle
6
CONTINUOUS
62
5
10
303.852234
20
495.583609
40
1.500000
100
AcDbArc
50
-121.423905
51
-34.763141
0
CIRCLE
5
2e7
100
AcDbEntity
8
1
100
AcDbCircle
6
CONTINUOUS
62
5
10
300.377717
20
483.109093
40
0.640000
0
CIRCLE
5
2e8
100
AcDbEntity
8
1
100
AcDbCircle
6
CONTINUOUS
62
5
10
300.377717
20
483.109093
40
0.700000
0
POLYLINE
5
2e9
100
AcDbEntity
8
1
6
CONTINUOUS
62
5
100
AcDb2dPolyline
66
1
10
0.0
20
0.0
30
0.0
70
1
0
VERTEX
5
2ea
100
AcDbEntity
8
1
100
AcDbVertex
100
AcDb2dVertex
62
5
10
300.377717
20
483.455503
0
VERTEX
5
2eb
100
AcDbEntity
8
1
100
AcDbVertex
100
AcDb2dVertex
62
5
10
300.677717
20
483.282298
0
VERTEX
5
2ec
100
AcDbEntity
8
1
100
AcDbVertex
100
AcDb2dVertex
62
5
10
300.677717
20
482.935887
0
VERTEX
5
2ed
100
AcDbEntity
8
1
100
AcDbVertex
100
AcDb2dVertex
62
5
10
300.377717
20
482.762682
0
VERTEX
5
2ee
100
AcDbEntity
8
1
100
AcDbVertex
100
AcDb2dVertex
62
5
10
300.077717
20
482.935887
0
VERTEX
5
2ef
100
AcDbEntity
8
1
100
AcDbVertex
100
AcDb2dVertex
62
5
10
300.077717
20
483.282298
0
VERTEX
5
2f0
100
AcDbEntity
8
1
100
AcDbVertex
100
AcDb2dVertex
62
5
10
300.377717
20
483.455503
0
SEQEND
5
2f1
100
AcDbEntity
8
1
0
CIRCLE
5
2f2
100
AcDbEntity
8
1
100
AcDbCircle
6
CONTINUOUS
62
5
10
299.352234
20
478.583609
40
0.640000
0
CIRCLE
5
2f3
100
AcDbEntity
8
1
100
AcDbCircle
6
CONTINUOUS
62
5
10
299.352234
20
478.583609
40
0.700000
0
POLYLINE
5
2f4
100
AcDbEntity
8
1
6
CONTINUOUS
62
5
100
AcDb2dPolyline
66
1
10
0.0
20
0.0
30
0.0
70
1
0
VERTEX
5
2f5
100
AcDbEntity
8
1
100
AcDbVertex
100
AcDb2dVertex
62
5
10
299.352234
20
478.930019
0
VERTEX
5
2f6
100
AcDbEntity
8
1
100
AcDbVertex
100
AcDb2dVertex
62
5
10
299.652234
20
478.756814
0
VERTEX
5
2f7
100
AcDbEntity
8
1
100
AcDbVertex
100
AcDb2dVertex
62
5
10
299.652234
20
478.410404
0
VERTEX
5
2f8
100
AcDbEntity
8
1
100
AcDbVertex
100
AcDb2dVertex
62
5
10
299.352234
20
478.237199
0
VERTEX
5
2f9
100
AcDbEntity
8
1
100
AcDbVertex
100
AcDb2dVertex
62
5
10
299.052234
20
478.410404
0
VERTEX
5
2fa
100
AcDbEntity
8
1
100
AcDbVertex
100
AcDb2dVertex
62
5
10
299.052234
20
478.756814
0
VERTEX
5
2fb
100
AcDbEntity
8
1
100
AcDbVertex
100
AcDb2dVertex
62
5
10
299.352234
20
478.930019
0
SEQEND
5
2fc
100
AcDbEntity
8
1
0
LINE
5
2fd
100
AcDbEntity
8
1
100
AcDbLine
6
CONTINUOUS
62
5
10
305.852234
20
477.904117
11
304.352234
21
477.904117
0
CIRCLE
5
2fe
100
AcDbEntity
8
1
100
AcDbCircle
6
CONTINUOUS
62
5
10
300.377717
20
474.058126
40
0.640000
0
CIRCLE
5
2ff
100
AcDbEntity
8
1
100
AcDbCircle
6
CONTINUOUS
62
5
10
300.377717
20
474.058126
40
0.700000
0
POLYLINE
5
300
100
AcDbEntity
8
1
6
CONTINUOUS
62
5
100
AcDb2dPolyline
66
1
10
0.0
20
0.0
30
0.0
70
1
0
VERTEX
5
301
100
AcDbEntity
8
1
100
AcDbVertex
100
AcDb2dVertex
62
5
10
300.377717
20
474.404536
0
VERTEX
5
302
100
AcDbEntity
8
1
100
AcDbVertex
100
AcDb2dVertex
62
5
10
300.677717
20
474.231331
0
VERTEX
5
303
100
AcDbEntity
8
1
100
AcDbVertex
100
AcDb2dVertex
62
5
10
300.677717
20
473.884921
0
VERTEX
5
304
100
AcDbEntity
8
1
100
AcDbVertex
100
AcDb2dVertex
62
5
10
300.377717
20
473.711716
0
VERTEX
5
305
100
AcDbEntity
8
1
100
AcDbVertex
100
AcDb2dVertex
62
5
10
300.077717
20
473.884921
0
VERTEX
5
306
100
AcDbEntity
8
1
100
AcDbVertex
100
AcDb2dVertex
62
5
10
300.077717
20
474.231331
0
VERTEX
5
307
100
AcDbEntity
8
1
100
AcDbVertex
100
AcDb2dVertex
62
5
10
300.377717
20
474.404536
0
SEQEND
5
308
100
AcDbEntity
8
1
0
LINE
5
309
100
AcDbEntity
8
1
100
AcDbLine
6
DOT2
62
5
10
301.852234
20
470.583609
11
301.852234
21
468.583609
0
LINE
5
30a
100
AcDbEntity
8
1
100
AcDbLine
6
DOT2
62
5
10
300.852234
20
469.583609
11
302.852234
21
469.583609
0
CIRCLE
5
30b
100
AcDbEntity
8
1
100
AcDbCircle
6
DOT2
62
5
10
301.852234
20
469.583609
40
0.600000
0
CIRCLE
5
30c
100
AcDbEntity
8
1
100
AcDbCircle
6
CONTINUOUS
62
5
10
301.852234
20
469.583609
40
0.480000
0
ARC
5
30d
100
AcDbEntity
8
1
100
AcDbCircle
6
CONTINUOUS
62
5
10
304.452234
20
469.583609
40
0.600000
100
AcDbArc
50
179.999998
51
-89.999999
0
LINE
5
30e
100
AcDbEntity
8
1
100
AcDbLine
6
CONTINUOUS
62
5
10
304.452234
20
468.983609
11
307.652234
21
468.983609
0
LINE
5
30f
100
AcDbEntity
8
1
100
AcDbLine
6
CONTINUOUS
62
5
10
303.852234
20
469.983609
11
303.852234
21
469.583609
0
LINE
5
310
100
AcDbEntity
8
1
100
AcDbLine
6
DOT2
62
5
10
305.852234
20
470.583609
11
305.852234
21
465.297542
0
POLYLINE
5
311
100
AcDbEntity
8
1
6
CONTINUOUS
62
5
100
AcDb2dPolyline
66
1
10
0.0
20
0.0
30
0.0
70
0
0
VERTEX
5
312
100
AcDbEntity
8
1
100
AcDbVertex
100
AcDb2dVertex
62
5
10
302.852234
20
487.583609
0
VERTEX
5
313
100
AcDbEntity
8
1
100
AcDbVertex
100
AcDb2dVertex
62
5
10
302.352234
20
487.583609
0
VERTEX
5
314
100
AcDbEntity
8
1
100
AcDbVertex
100
AcDb2dVertex
62
5
10
304.352234
20
477.904117
0
VERTEX
5
315
100
AcDbEntity
8
1
100
AcDbVertex
100
AcDb2dVertex
62
5
10
302.852234
20
472.707965
0
SEQEND
5
316
100
AcDbEntity
8
1
0
LINE
5
317
100
AcDbEntity
8
1
100
AcDbLine
6
CONTINUOUS
62
5
10
290.352234
20
487.783609
11
288.652234
21
490.783604
0
LINE
5
318
100
AcDbEntity
8
1
100
AcDbLine
6
DASHED
62
5
10
296.652234
20
481.319025
11
296.652234
21
483.011927
0
LINE
5
319
100
AcDbEntity
8
1
100
AcDbLine
6
DASHED
62
5
10
295.052234
20
483.011927
11
295.052234
21
481.319025
0
CIRCLE
5
31a
100
AcDbEntity
8
1
100
AcDbCircle
6
CONTINUOUS
62
5
10
291.326750
20
483.109093
40
0.640000
0
CIRCLE
5
31b
100
AcDbEntity
8
1
100
AcDbCircle
6
CONTINUOUS
62
5
10
291.326750
20
483.109093
40
0.700000
0
POLYLINE
5
31c
100
AcDbEntity
8
1
6
CONTINUOUS
62
5
100
AcDb2dPolyline
66
1
10
0.0
20
0.0
30
0.0
70
1
0
VERTEX
5
31d
100
AcDbEntity
8
1
100
AcDbVertex
100
AcDb2dVertex
62
5
10
291.326750
20
483.455503
0
VERTEX
5
31e
100
AcDbEntity
8
1
100
AcDbVertex
100
AcDb2dVertex
62
5
10
291.626750
20
483.282298
0
VERTEX
5
31f
100
AcDbEntity
8
1
100
AcDbVertex
100
AcDb2dVertex
62
5
10
291.626750
20
482.935887
0
VERTEX
5
320
100
AcDbEntity
8
1
100
AcDbVertex
100
AcDb2dVertex
62
5
10
291.326750
20
482.762682
0
VERTEX
5
321
100
AcDbEntity
8
1
100
AcDbVertex
100
AcDb2dVertex
62
5
10
291.026750
20
482.935887
0
VERTEX
5
322
100
AcDbEntity
8
1
100
AcDbVertex
100
AcDb2dVertex
62
5
10
291.026750
20
483.282298
0
VERTEX
5
323
100
AcDbEntity
8
1
100
AcDbVertex
100
AcDb2dVertex
62
5
10
291.326750
20
483.455503
0
SEQEND
5
324
100
AcDbEntity
8
1
0
CIRCLE
5
325
100
AcDbEntity
8
1
100
AcDbCircle
6
CONTINUOUS
62
5
10
294.102234
20
481.614698
40
0.640000
0
CIRCLE
5
326
100
AcDbEntity
8
1
100
AcDbCircle
6
CONTINUOUS
62
5
10
294.102234
20
481.614698
40
0.700000
0
POLYLINE
5
327
100
AcDbEntity
8
1
6
CONTINUOUS
62
5
100
AcDb2dPolyline
66
1
10
0.0
20
0.0
30
0.0
70
1
0
VERTEX
5
328
100
AcDbEntity
8
1
100
AcDbVertex
100
AcDb2dVertex
62
5
10
293.802234
20
481.441493
0
VERTEX
5
329
100
AcDbEntity
8
1
100
AcDbVertex
100
AcDb2dVertex
62
5
10
293.802234
20
481.787903
0
VERTEX
5
32a
100
AcDbEntity
8
1
100
AcDbVertex
100
AcDb2dVertex
62
5
10
294.102234
20
481.961108
0
VERTEX
5
32b
100
AcDbEntity
8
1
100
AcDbVertex
100
AcDb2dVertex
62
5
10
294.402234
20
481.787903
0
VERTEX
5
32c
100
AcDbEntity
8
1
100
AcDbVertex
100
AcDb2dVertex
62
5
10
294.402234
20
481.441493
0
VERTEX
5
32d
100
AcDbEntity
8
1
100
AcDbVertex
100
AcDb2dVertex
62
5
10
294.102234
20
481.268288
0
VERTEX
5
32e
100
AcDbEntity
8
1
100
AcDbVertex
100
AcDb2dVertex
62
5
10
293.802234
20
481.441493
0
SEQEND
5
32f
100
AcDbEntity
8
1
0
CIRCLE
5
330
100
AcDbEntity
8
1
100
AcDbCircle
6
CONTINUOUS
62
5
10
292.352234
20
478.583609
40
0.640000
0
CIRCLE
5
331
100
AcDbEntity
8
1
100
AcDbCircle
6
CONTINUOUS
62
5
10
292.352234
20
478.583609
40
0.700000
0
POLYLINE
5
332
100
AcDbEntity
8
1
6
CONTINUOUS
62
5
100
AcDb2dPolyline
66
1
10
0.0
20
0.0
30
0.0
70
1
0
VERTEX
5
333
100
AcDbEntity
8
1
100
AcDbVertex
100
AcDb2dVertex
62
5
10
292.352234
20
478.237199
0
VERTEX
5
334
100
AcDbEntity
8
1
100
AcDbVertex
100
AcDb2dVertex
62
5
10
292.052234
20
478.410404
0
VERTEX
5
335
100
AcDbEntity
8
1
100
AcDbVertex
100
AcDb2dVertex
62
5
10
292.052234
20
478.756814
0
VERTEX
5
336
100
AcDbEntity
8
1
100
AcDbVertex
100
AcDb2dVertex
62
5
10
292.352234
20
478.930019
0
VERTEX
5
337
100
AcDbEntity
8
1
100
AcDbVertex
100
AcDb2dVertex
62
5
10
292.652234
20
478.756814
0
VERTEX
5
338
100
AcDbEntity
8
1
100
AcDbVertex
100
AcDb2dVertex
62
5
10
292.652234
20
478.410404
0
VERTEX
5
339
100
AcDbEntity
8
1
100
AcDbVertex
100
AcDb2dVertex
62
5
10
292.352234
20
478.237199
0
SEQEND
5
33a
100
AcDbEntity
8
1
0
ARC
5
33b
100
AcDbEntity
8
1
100
AcDbCircle
6
CONTINUOUS
62
5
10
287.852234
20
495.583609
40
1.500000
100
AcDbArc
50
-145.236858
51
-58.576093
0
LINE
5
33c
100
AcDbEntity
8
1
100
AcDbLine
6
CONTINUOUS
62
5
10
285.852234
20
477.904117
11
287.352234
21
477.904117
0
CIRCLE
5
33d
100
AcDbEntity
8
1
100
AcDbCircle
6
CONTINUOUS
62
5
10
291.326750
20
474.058126
40
0.640000
0
CIRCLE
5
33e
100
AcDbEntity
8
1
100
AcDbCircle
6
CONTINUOUS
62
5
10
291.326750
20
474.058126
40
0.700000
0
POLYLINE
5
33f
100
AcDbEntity
8
1
6
CONTINUOUS
62
5
100
AcDb2dPolyline
66
1
10
0.0
20
0.0
30
0.0
70
1
0
VERTEX
5
340
100
AcDbEntity
8
1
100
AcDbVertex
100
AcDb2dVertex
62
5
10
291.326750
20
474.404536
0
VERTEX
5
341
100
AcDbEntity
8
1
100
AcDbVertex
100
AcDb2dVertex
62
5
10
291.626750
20
474.231331
0
VERTEX
5
342
100
AcDbEntity
8
1
100
AcDbVertex
100
AcDb2dVertex
62
5
10
291.626750
20
473.884921
0
VERTEX
5
343
100
AcDbEntity
8
1
100
AcDbVertex
100
AcDb2dVertex
62
5
10
291.326750
20
473.711716
0
VERTEX
5
344
100
AcDbEntity
8
1
100
AcDbVertex
100
AcDb2dVertex
62
5
10
291.026750
20
473.884921
0
VERTEX
5
345
100
AcDbEntity
8
1
100
AcDbVertex
100
AcDb2dVertex
62
5
10
291.026750
20
474.231331
0
VERTEX
5
346
100
AcDbEntity
8
1
100
AcDbVertex
100
AcDb2dVertex
62
5
10
291.326750
20
474.404536
0
SEQEND
5
347
100
AcDbEntity
8
1
0
LINE
5
348
100
AcDbEntity
8
1
100
AcDbLine
6
DOT2
62
5
10
289.852234
20
470.583609
11
289.852234
21
468.583609
0
LINE
5
349
100
AcDbEntity
8
1
100
AcDbLine
6
DOT2
62
5
10
288.852234
20
469.583609
11
290.852234
21
469.583609
0
CIRCLE
5
34a
100
AcDbEntity
8
1
100
AcDbCircle
6
DOT2
62
5
10
289.852234
20
469.583609
40
0.600000
0
CIRCLE
5
34b
100
AcDbEntity
8
1
100
AcDbCircle
6
CONTINUOUS
62
5
10
289.852234
20
469.583609
40
0.480000
0
CIRCLE
5
34c
100
AcDbEntity
8
1
100
AcDbCircle
6
CONTINUOUS
62
5
10
294.102234
20
475.552520
40
0.640000
0
CIRCLE
5
34d
100
AcDbEntity
8
1
100
AcDbCircle
6
CONTINUOUS
62
5
10
294.102234
20
475.552520
40
0.700000
0
POLYLINE
5
34e
100
AcDbEntity
8
1
6
CONTINUOUS
62
5
100
AcDb2dPolyline
66
1
10
0.0
20
0.0
30
0.0
70
1
0
VERTEX
5
34f
100
AcDbEntity
8
1
100
AcDbVertex
100
AcDb2dVertex
62
5
10
294.402234
20
475.379315
0
VERTEX
5
350
100
AcDbEntity
8
1
100
AcDbVertex
100
AcDb2dVertex
62
5
10
294.102234
20
475.206110
0
VERTEX
5
351
100
AcDbEntity
8
1
100
AcDbVertex
100
AcDb2dVertex
62
5
10
293.802234
20
475.379315
0
VERTEX
5
352
100
AcDbEntity
8
1
100
AcDbVertex
100
AcDb2dVertex
62
5
10
293.802234
20
475.725725
0
VERTEX
5
353
100
AcDbEntity
8
1
100
AcDbVertex
100
AcDb2dVertex
62
5
10
294.102234
20
475.898930
0
VERTEX
5
354
100
AcDbEntity
8
1
100
AcDbVertex
100
AcDb2dVertex
62
5
10
294.402234
20
475.725725
0
VERTEX
5
355
100
AcDbEntity
8
1
100
AcDbVertex
100
AcDb2dVertex
62
5
10
294.402234
20
475.379315
0
SEQEND
5
356
100
AcDbEntity
8
1
0
LINE
5
357
100
AcDbEntity
8
1
100
AcDbLine
6
DOT2
62
5
10
285.852234
20
470.666179
11
285.852234
21
465.297542
0
ARC
5
358
100
AcDbEntity
8
1
100
AcDbCircle
6
CONTINUOUS
62
5
10
287.252234
20
469.583609
40
0.600000
100
AcDbArc
50
-89.999999
51
0.000000
0
LINE
5
359
100
AcDbEntity
8
1
100
AcDbLine
6
CONTINUOUS
62
5
10
287.252234
20
468.983609
11
284.052234
21
468.983609
0
LINE
5
35a
100
AcDbEntity
8
1
100
AcDbLine
6
CONTINUOUS
62
5
10
287.852234
20
469.983609
11
287.852234
21
469.583609
0
LINE
5
35b
100
AcDbEntity
8
1
100
AcDbLine
6
CONTINUOUS
62
5
10
286.842916
20
476.188204
11
285.852234
21
477.904117
0
POLYLINE
5
35c
100
AcDbEntity
8
1
6
CONTINUOUS
62
5
100
AcDb2dPolyline
66
1
10
0.0
20
0.0
30
0.0
70
0
0
VERTEX
5
35d
100
AcDbEntity
8
1
100
AcDbVertex
100
AcDb2dVertex
62
5
10
289.352234
20
487.583609
0
VERTEX
5
35e
100
AcDbEntity
8
1
100
AcDbVertex
100
AcDb2dVertex
62
5
10
287.352234
20
477.904117
0
VERTEX
5
35f
100
AcDbEntity
8
1
100
AcDbVertex
100
AcDb2dVertex
62
5
10
288.852234
20
472.707965
0
SEQEND
5
360
100
AcDbEntity
8
1
0
CIRCLE
5
361
100
AcDbEntity
8
1
100
AcDbCircle
6
CONTINUOUS
62
5
10
295.852234
20
478.583609
40
1.500000
0
CIRCLE
5
362
100
AcDbEntity
8
1
100
AcDbCircle
6
CONTINUOUS
62
5
10
297.602234
20
481.614698
40
0.640000
0
CIRCLE
5
363
100
AcDbEntity
8
1
100
AcDbCircle
6
CONTINUOUS
62
5
10
297.602234
20
481.614698
40
0.700000
0
POLYLINE
5
364
100
AcDbEntity
8
1
6
CONTINUOUS
62
5
100
AcDb2dPolyline
66
1
10
0.0
20
0.0
30
0.0
70
1
0
VERTEX
5
365
100
AcDbEntity
8
1
100
AcDbVertex
100
AcDb2dVertex
62
5
10
297.302234
20
481.787903
0
VERTEX
5
366
100
AcDbEntity
8
1
100
AcDbVertex
100
AcDb2dVertex
62
5
10
297.602234
20
481.961108
0
VERTEX
5
367
100
AcDbEntity
8
1
100
AcDbVertex
100
AcDb2dVertex
62
5
10
297.902234
20
481.787903
0
VERTEX
5
368
100
AcDbEntity
8
1
100
AcDbVertex
100
AcDb2dVertex
62
5
10
297.902234
20
481.441493
0
VERTEX
5
369
100
AcDbEntity
8
1
100
AcDbVertex
100
AcDb2dVertex
62
5
10
297.602234
20
481.268288
0
VERTEX
5
36a
100
AcDbEntity
8
1
100
AcDbVertex
100
AcDb2dVertex
62
5
10
297.302234
20
481.441493
0
VERTEX
5
36b
100
AcDbEntity
8
1
100
AcDbVertex
100
AcDb2dVertex
62
5
10
297.302234
20
481.787903
0
SEQEND
5
36c
100
AcDbEntity
8
1
0
POLYLINE
5
36d
100
AcDbEntity
8
1
6
CONTINUOUS
62
5
100
AcDb2dPolyline
66
1
10
0.0
20
0.0
30
0.0
70
0
0
VERTEX
5
36e
100
AcDbEntity
8
1
100
AcDbVertex
100
AcDb2dVertex
62
5
10
288.652234
20
487.583609
0
VERTEX
5
36f
100
AcDbEntity
8
1
100
AcDbVertex
100
AcDb2dVertex
62
5
10
288.652234
20
490.783604
0
VERTEX
5
370
100
AcDbEntity
8
1
100
AcDbVertex
100
AcDb2dVertex
62
5
10
303.032417
20
490.783604
0
VERTEX
5
371
100
AcDbEntity
8
1
100
AcDbVertex
100
AcDb2dVertex
62
5
10
303.052234
20
487.583609
0
SEQEND
5
372
100
AcDbEntity
8
1
0
LINE
5
373
100
AcDbEntity
8
1
100
AcDbLine
6
CONTINUOUS
62
5
10
293.052234
20
493.303609
11
298.652234
21
493.303609
0
POLYLINE
5
374
100
AcDbEntity
8
1
6
CONTINUOUS
62
5
100
AcDb2dPolyline
66
1
10
0.0
20
0.0
30
0.0
70
1
0
VERTEX
5
375
100
AcDbEntity
8
1
100
AcDbVertex
100
AcDb2dVertex
62
5
10
290.352234
20
487.583609
0
VERTEX
5
376
100
AcDbEntity
8
1
100
AcDbVertex
100
AcDb2dVertex
62
5
10
301.352234
20
487.583609
0
VERTEX
5
377
100
AcDbEntity
8
1
100
AcDbVertex
100
AcDb2dVertex
62
5
10
301.352234
20
487.783609
0
VERTEX
5
378
100
AcDbEntity
8
1
100
AcDbVertex
100
AcDb2dVertex
62
5
10
290.352234
20
487.783609
0
SEQEND
5
379
100
AcDbEntity
8
1
0
POLYLINE
5
37a
100
AcDbEntity
8
1
6
CONTINUOUS
62
5
100
AcDb2dPolyline
66
1
10
0.0
20
0.0
30
0.0
70
0
0
VERTEX
5
37b
100
AcDbEntity
8
1
100
AcDbVertex
100
AcDb2dVertex
62
5
10
293.052234
20
494.903609
0
VERTEX
5
37c
100
AcDbEntity
8
1
100
AcDbVertex
100
AcDb2dVertex
62
5
10
293.052234
20
493.303609
0
VERTEX
5
37d
100
AcDbEntity
8
1
100
AcDbVertex
100
AcDb2dVertex
62
5
10
293.652234
20
492.703609
0
VERTEX
5
37e
100
AcDbEntity
8
1
100
AcDbVertex
100
AcDb2dVertex
62
5
10
298.052234
20
492.703609
0
VERTEX
5
37f
100
AcDbEntity
8
1
100
AcDbVertex
100
AcDb2dVertex
62
5
10
298.652234
20
493.303609
0
VERTEX
5
380
100
AcDbEntity
8
1
100
AcDbVertex
100
AcDb2dVertex
62
5
10
298.652234
20
494.903609
0
SEQEND
5
381
100
AcDbEntity
8
1
0
CIRCLE
5
382
100
AcDbEntity
8
1
100
AcDbCircle
6
CONTINUOUS
62
5
10
297.602234
20
475.552520
40
0.640000
0
CIRCLE
5
383
100
AcDbEntity
8
1
100
AcDbCircle
6
CONTINUOUS
62
5
10
297.602234
20
475.552520
40
0.700000
0
POLYLINE
5
384
100
AcDbEntity
8
1
6
CONTINUOUS
62
5
100
AcDb2dPolyline
66
1
10
0.0
20
0.0
30
0.0
70
1
0
VERTEX
5
385
100
AcDbEntity
8
1
100
AcDbVertex
100
AcDb2dVertex
62
5
10
297.902234
20
475.725725
0
VERTEX
5
386
100
AcDbEntity
8
1
100
AcDbVertex
100
AcDb2dVertex
62
5
10
297.902234
20
475.379315
0
VERTEX
5
387
100
AcDbEntity
8
1
100
AcDbVertex
100
AcDb2dVertex
62
5
10
297.602234
20
475.206110
0
VERTEX
5
388
100
AcDbEntity
8
1
100
AcDbVertex
100
AcDb2dVertex
62
5
10
297.302234
20
475.379315
0
VERTEX
5
389
100
AcDbEntity
8
1
100
AcDbVertex
100
AcDb2dVertex
62
5
10
297.302234
20
475.725725
0
VERTEX
5
38a
100
AcDbEntity
8
1
100
AcDbVertex
100
AcDb2dVertex
62
5
10
297.602234
20
475.898930
0
VERTEX
5
38b
100
AcDbEntity
8
1
100
AcDbVertex
100
AcDb2dVertex
62
5
10
297.902234
20
475.725725
0
SEQEND
5
38c
100
AcDbEntity
8
1
0
CIRCLE
5
38d
100
AcDbEntity
8
1
100
AcDbCircle
6
CONTINUOUS
62
5
10
295.852234
20
478.583609
40
7.500000
0
CIRCLE
5
38e
100
AcDbEntity
8
1
100
AcDbCircle
6
CONTINUOUS
62
5
10
295.852234
20
478.583609
40
4.500000
0
CIRCLE
5
38f
100
AcDbEntity
8
1
100
AcDbCircle
6
CONTINUOUS
62
5
10
295.852234
20
478.583609
40
4.500000
0
CIRCLE
5
390
100
AcDbEntity
8
1
100
AcDbCircle
6
CONTINUOUS
62
5
10
295.852234
20
478.583609
40
2.299999
0
POLYLINE
5
391
100
AcDbEntity
8
1
6
DOT2
62
5
100
AcDb2dPolyline
66
1
10
0.0
20
0.0
30
0.0
70
0
0
VERTEX
5
392
100
AcDbEntity
8
1
100
AcDbVertex
100
AcDb2dVertex
62
5
10
295.852234
20
478.583609
0
VERTEX
5
393
100
AcDbEntity
8
1
100
AcDbVertex
100
AcDb2dVertex
62
5
10
298.507181
20
478.583609
0
VERTEX
5
394
100
AcDbEntity
8
1
100
AcDbVertex
100
AcDb2dVertex
62
5
10
300.165237
20
478.583609
0
SEQEND
5
395
100
AcDbEntity
8
1
0
LINE
5
396
100
AcDbEntity
8
0
100
AcDbLine
6
HIDDEN
62
5
10
284.052234
20
468.583613
11
307.652234
21
468.583613
0
LINE
5
397
100
AcDbEntity
8
1
100
AcDbLine
6
DOT2
62
5
10
295.852234
20
486.783609
11
295.852234
21
470.383609
0
LINE
5
398
100
AcDbEntity
8
1
100
AcDbLine
6
DOT2
62
5
10
284.968362
20
478.583609
11
307.577150
21
478.583609
0
ARC
5
399
100
AcDbEntity
8
1
100
AcDbCircle
6
CONTINUOUS
62
5
10
303.852234
20
471.183609
40
1.000000
100
AcDbArc
50
179.999998
51
-89.999999
0
POLYLINE
5
39a
100
AcDbEntity
8
1
6
CONTINUOUS
62
5
100
AcDb2dPolyline
66
1
10
0.0
20
0.0
30
0.0
70
0
0
VERTEX
5
39b
100
AcDbEntity
8
1
100
AcDbVertex
100
AcDb2dVertex
62
5
10
302.852234
20
471.183609
0
VERTEX
5
39c
100
AcDbEntity
8
1
100
AcDbVertex
100
AcDb2dVertex
62
5
10
302.852234
20
472.707965
0
VERTEX
5
39d
100
AcDbEntity
8
1
100
AcDbVertex
100
AcDb2dVertex
62
5
10
305.852234
20
477.904117
0
VERTEX
5
39e
100
AcDbEntity
8
1
100
AcDbVertex
100
AcDb2dVertex
62
5
10
305.852234
20
487.583609
0
VERTEX
5
39f
100
AcDbEntity
8
1
100
AcDbVertex
100
AcDb2dVertex
62
5
10
285.852234
20
487.583609
0
VERTEX
5
3a0
100
AcDbEntity
8
1
100
AcDbVertex
100
AcDb2dVertex
62
5
10
285.852234
20
477.904117
0
VERTEX
5
3a1
100
AcDbEntity
8
1
100
AcDbVertex
100
AcDb2dVertex
62
5
10
288.852234
20
472.707965
0
VERTEX
5
3a2
100
AcDbEntity
8
1
100
AcDbVertex
100
AcDb2dVertex
62
5
10
288.852234
20
471.183609
0
SEQEND
5
3a3
100
AcDbEntity
8
1
0
ARC
5
3a4
100
AcDbEntity
8
1
100
AcDbCircle
6
CONTINUOUS
62
5
10
287.852234
20
471.183609
40
1.000000
100
AcDbArc
50
-89.999999
51
0.000000
0
POLYLINE
5
3a5
100
AcDbEntity
8
1
6
CONTINUOUS
62
5
100
AcDb2dPolyline
66
1
10
0.0
20
0.0
30
0.0
70
0
0
VERTEX
5
3a6
100
AcDbEntity
8
1
100
AcDbVertex
100
AcDb2dVertex
62
5
10
287.852234
20
470.183609
0
VERTEX
5
3a7
100
AcDbEntity
8
1
100
AcDbVertex
100
AcDb2dVertex
62
5
10
287.852234
20
470.183609
0
VERTEX
5
3a8
100
AcDbEntity
8
1
100
AcDbVertex
100
AcDb2dVertex
62
5
10
287.852234
20
469.583609
0
VERTEX
5
3a9
100
AcDbEntity
8
1
100
AcDbVertex
100
AcDb2dVertex
62
5
10
284.052234
20
469.583609
0
VERTEX
5
3aa
100
AcDbEntity
8
1
100
AcDbVertex
100
AcDb2dVertex
62
5
10
284.052234
20
466.583609
0
VERTEX
5
3ab
100
AcDbEntity
8
1
100
AcDbVertex
100
AcDb2dVertex
62
5
10
294.652234
20
466.583609
0
VERTEX
5
3ac
100
AcDbEntity
8
1
100
AcDbVertex
100
AcDb2dVertex
62
5
10
294.652234
20
468.583609
0
VERTEX
5
3ad
100
AcDbEntity
8
1
100
AcDbVertex
100
AcDb2dVertex
62
5
10
297.052234
20
468.583609
0
VERTEX
5
3ae
100
AcDbEntity
8
1
100
AcDbVertex
100
AcDb2dVertex
62
5
10
297.052234
20
466.583609
0
VERTEX
5
3af
100
AcDbEntity
8
1
100
AcDbVertex
100
AcDb2dVertex
62
5
10
307.652234
20
466.583609
0
VERTEX
5
3b0
100
AcDbEntity
8
1
100
AcDbVertex
100
AcDb2dVertex
62
5
10
307.652234
20
469.583609
0
VERTEX
5
3b1
100
AcDbEntity
8
1
100
AcDbVertex
100
AcDb2dVertex
62
5
10
304.252234
20
469.583609
0
VERTEX
5
3b2
100
AcDbEntity
8
1
100
AcDbVertex
100
AcDb2dVertex
62
5
10
303.852234
20
469.583609
0
VERTEX
5
3b3
100
AcDbEntity
8
1
100
AcDbVertex
100
AcDb2dVertex
62
5
10
303.852234
20
470.183609
0
VERTEX
5
3b4
100
AcDbEntity
8
1
100
AcDbVertex
100
AcDb2dVertex
62
5
10
303.852234
20
470.183609
0
SEQEND
5
3b5
100
AcDbEntity
8
1
0
ARC
5
3b6
100
AcDbEntity
8
1
100
AcDbCircle
6
CONTINUOUS
62
5
10
288.632417
20
487.783604
40
2.800000
100
AcDbArc
50
89.999999
51
179.999998
0
POLYLINE
5
3b7
100
AcDbEntity
8
1
6
CONTINUOUS
62
5
100
AcDb2dPolyline
66
1
10
0.0
20
0.0
30
0.0
70
0
0
VERTEX
5
3b8
100
AcDbEntity
8
1
100
AcDbVertex
100
AcDb2dVertex
62
5
10
285.832417
20
487.783604
0
VERTEX
5
3b9
100
AcDbEntity
8
1
100
AcDbVertex
100
AcDb2dVertex
62
5
10
285.832417
20
480.583604
0
VERTEX
5
3ba
100
AcDbEntity
8
1
100
AcDbVertex
100
AcDb2dVertex
62
5
10
285.632417
20
480.583604
0
VERTEX
5
3bb
100
AcDbEntity
8
1
100
AcDbVertex
100
AcDb2dVertex
62
5
10
285.632417
20
487.783604
0
SEQEND
5
3bc
100
AcDbEntity
8
1
0
ARC
5
3bd
100
AcDbEntity
8
1
100
AcDbCircle
6
CONTINUOUS
62
5
10
288.632417
20
487.783604
40
3.000000
100
AcDbArc
50
89.999999
51
179.999998
0
LINE
5
3be
100
AcDbEntity
8
1
100
AcDbLine
6
CONTINUOUS
62
5
10
288.632417
20
490.783604
11
303.032417
21
490.783604
0
ARC
5
3bf
100
AcDbEntity
8
1
100
AcDbCircle
6
CONTINUOUS
62
5
10
303.032417
20
487.783604
40
3.000000
100
AcDbArc
50
0.000000
51
89.999999
0
POLYLINE
5
3c0
100
AcDbEntity
8
1
6
CONTINUOUS
62
5
100
AcDb2dPolyline
66
1
10
0.0
20
0.0
30
0.0
70
0
0
VERTEX
5
3c1
100
AcDbEntity
8
1
100
AcDbVertex
100
AcDb2dVertex
62
5
10
306.032417
20
487.783604
0
VERTEX
5
3c2
100
AcDbEntity
8
1
100
AcDbVertex
100
AcDb2dVertex
62
5
10
306.032417
20
480.583604
0
VERTEX
5
3c3
100
AcDbEntity
8
1
100
AcDbVertex
100
AcDb2dVertex
62
5
10
305.832417
20
480.583604
0
VERTEX
5
3c4
100
AcDbEntity
8
1
100
AcDbVertex
100
AcDb2dVertex
62
5
10
305.832417
20
487.783604
0
SEQEND
5
3c5
100
AcDbEntity
8
1
0
ARC
5
3c6
100
AcDbEntity
8
1
100
AcDbCircle
6
CONTINUOUS
62
5
10
303.032417
20
487.783604
40
2.800000
100
AcDbArc
50
0.000000
51
89.999999
0
LINE
5
3c7
100
AcDbEntity
8
1
100
AcDbLine
6
CONTINUOUS
62
5
10
288.652234
20
490.583604
11
288.632417
21
490.583604
0
CIRCLE
5
3c8
100
AcDbEntity
8
1
100
AcDbCircle
6
CONTINUOUS
62
5
10
300.094874
20
496.060968
40
0.790000
0
CIRCLE
5
3c9
100
AcDbEntity
8
1
100
AcDbCircle
6
CONTINUOUS
62
5
10
300.094874
20
496.060968
40
0.850000
0
POLYLINE
5
3ca
100
AcDbEntity
8
1
6
CONTINUOUS
62
5
100
AcDb2dPolyline
66
1
10
0.0
20
0.0
30
0.0
70
1
0
VERTEX
5
3cb
100
AcDbEntity
8
1
100
AcDbVertex
100
AcDb2dVertex
62
5
10
300.094874
20
496.522849
0
VERTEX
5
3cc
100
AcDbEntity
8
1
100
AcDbVertex
100
AcDb2dVertex
62
5
10
300.494874
20
496.291909
0
VERTEX
5
3cd
100
AcDbEntity
8
1
100
AcDbVertex
100
AcDb2dVertex
62
5
10
300.494874
20
495.830028
0
VERTEX
5
3ce
100
AcDbEntity
8
1
100
AcDbVertex
100
AcDb2dVertex
62
5
10
300.094874
20
495.599088
0
VERTEX
5
3cf
100
AcDbEntity
8
1
100
AcDbVertex
100
AcDb2dVertex
62
5
10
299.694874
20
495.830028
0
VERTEX
5
3d0
100
AcDbEntity
8
1
100
AcDbVertex
100
AcDb2dVertex
62
5
10
299.694874
20
496.291909
0
VERTEX
5
3d1
100
AcDbEntity
8
1
100
AcDbVertex
100
AcDb2dVertex
62
5
10
300.094874
20
496.522849
0
SEQEND
5
3d2
100
AcDbEntity
8
1
0
CIRCLE
5
3d3
100
AcDbEntity
8
1
100
AcDbCircle
6
CONTINUOUS
62
5
10
291.609593
20
496.060968
40
0.790000
0
CIRCLE
5
3d4
100
AcDbEntity
8
1
100
AcDbCircle
6
CONTINUOUS
62
5
10
291.609593
20
496.060968
40
0.850000
0
POLYLINE
5
3d5
100
AcDbEntity
8
1
6
CONTINUOUS
62
5
100
AcDb2dPolyline
66
1
10
0.0
20
0.0
30
0.0
70
1
0
VERTEX
5
3d6
100
AcDbEntity
8
1
100
AcDbVertex
100
AcDb2dVertex
62
5
10
291.609593
20
496.522849
0
VERTEX
5
3d7
100
AcDbEntity
8
1
100
AcDbVertex
100
AcDb2dVertex
62
5
10
292.009593
20
496.291909
0
VERTEX
5
3d8
100
AcDbEntity
8
1
100
AcDbVertex
100
AcDb2dVertex
62
5
10
292.009593
20
495.830028
0
VERTEX
5
3d9
100
AcDbEntity
8
1
100
AcDbVertex
100
AcDb2dVertex
62
5
10
291.609593
20
495.599088
0
VERTEX
5
3da
100
AcDbEntity
8
1
100
AcDbVertex
100
AcDb2dVertex
62
5
10
291.209593
20
495.830028
0
VERTEX
5
3db
100
AcDbEntity
8
1
100
AcDbVertex
100
AcDb2dVertex
62
5
10
291.209593
20
496.291909
0
VERTEX
5
3dc
100
AcDbEntity
8
1
100
AcDbVertex
100
AcDb2dVertex
62
5
10
291.609593
20
496.522849
0
SEQEND
5
3dd
100
AcDbEntity
8
1
0
ARC
5
3de
100
AcDbEntity
8
1
100
AcDbCircle
6
CONTINUOUS
62
5
10
303.852234
20
496.303609
40
0.700000
100
AcDbArc
50
-179.999998
51
-0.000000
0
LINE
5
3df
100
AcDbEntity
8
1
100
AcDbLine
6
CONTINUOUS
62
5
10
304.552234
20
496.303609
11
304.552234
21
496.869466
0
LINE
5
3e0
100
AcDbEntity
8
1
100
AcDbLine
6
CONTINUOUS
62
5
10
303.152234
20
496.869466
11
303.152234
21
496.303609
0
ARC
5
3e1
100
AcDbEntity
8
1
100
AcDbCircle
6
CONTINUOUS
62
5
10
287.852234
20
496.303609
40
0.700000
100
AcDbArc
50
-179.999998
51
-0.000000
0
LINE
5
3e2
100
AcDbEntity
8
1
100
AcDbLine
6
CONTINUOUS
62
5
10
287.152234
20
496.303609
11
287.152234
21
496.869466
0
LINE
5
3e3
100
AcDbEntity
8
1
100
AcDbLine
6
CONTINUOUS
62
5
10
288.552234
20
496.869466
11
288.552234
21
496.303609
0
ARC
5
3e4
100
AcDbEntity
8
1
100
AcDbCircle
6
CONTINUOUS
62
5
10
301.852234
20
473.295572
40
4.000000
100
AcDbArc
50
-59.999999
51
0.000000
0
LINE
5
3e5
100
AcDbEntity
8
1
100
AcDbLine
6
CONTINUOUS
62
5
10
305.852234
20
473.295572
11
305.852234
21
504.871646
0
ARC
5
3e6
100
AcDbEntity
8
1
100
AcDbCircle
6
CONTINUOUS
62
5
10
301.852234
20
504.871646
40
4.000000
100
AcDbArc
50
0.000000
51
87.999999
0
POLYLINE
5
3e7
100
AcDbEntity
8
1
6
CONTINUOUS
62
5
100
AcDb2dPolyline
66
1
10
0.0
20
0.0
30
0.0
70
0
0
VERTEX
5
3e8
100
AcDbEntity
8
1
100
AcDbVertex
100
AcDb2dVertex
62
5
10
301.991832
20
508.869210
0
VERTEX
5
3e9
100
AcDbEntity
8
1
100
AcDbVertex
100
AcDb2dVertex
62
5
10
295.852234
20
509.083609
0
VERTEX
5
3ea
100
AcDbEntity
8
1
100
AcDbVertex
100
AcDb2dVertex
62
5
10
289.712636
20
508.869210
0
SEQEND
5
3eb
100
AcDbEntity
8
1
0
ARC
5
3ec
100
AcDbEntity
8
1
100
AcDbCircle
6
CONTINUOUS
62
5
10
289.852234
20
504.871646
40
4.000000
100
AcDbArc
50
91.999999
51
179.999998
0
LINE
5
3ed
100
AcDbEntity
8
1
100
AcDbLine
6
CONTINUOUS
62
5
10
285.852234
20
504.871646
11
285.852234
21
472.716159
0
ARC
5
3ee
100
AcDbEntity
8
1
100
AcDbCircle
6
CONTINUOUS
62
5
10
289.252234
20
472.716159
40
3.400000
100
AcDbArc
50
179.999998
51
-114.315738
0
LINE
5
3ef
100
AcDbEntity
8
1
100
AcDbLine
6
DOT2
62
5
10
295.852234
20
510.499392
11
295.852234
21
466.797417
0
ARC
5
3f0
100
AcDbEntity
8
1
100
AcDbCircle
6
CONTINUOUS
62
5
10
295.852234
20
500.303609
40
7.150000
100
AcDbArc
50
130.953238
51
139.046759
0
LINE
5
3f1
100
AcDbEntity
8
1
100
AcDbLine
6
CONTINUOUS
62
5
10
290.452234
20
504.990026
11
290.452234
21
495.617193
0
ARC
5
3f2
100
AcDbEntity
8
1
100
AcDbCircle
6
CONTINUOUS
62
5
10
295.852234
20
500.303609
40
7.150000
100
AcDbArc
50
-139.046759
51
-130.953238
0
POLYLINE
5
3f3
100
AcDbEntity
8
1
6
CONTINUOUS
62
5
100
AcDb2dPolyline
66
1
10
0.0
20
0.0
30
0.0
70
0
0
VERTEX
5
3f4
100
AcDbEntity
8
1
100
AcDbVertex
100
AcDb2dVertex
62
5
10
291.165817
20
494.903609
0
VERTEX
5
3f5
100
AcDbEntity
8
1
100
AcDbVertex
100
AcDb2dVertex
62
5
10
295.852234
20
494.903609
0
VERTEX
5
3f6
100
AcDbEntity
8
1
100
AcDbVertex
100
AcDb2dVertex
62
5
10
300.538650
20
494.903609
0
SEQEND
5
3f7
100
AcDbEntity
8
1
0
ARC
5
3f8
100
AcDbEntity
8
1
100
AcDbCircle
6
CONTINUOUS
62
5
10
295.852234
20
500.303609
40
7.150000
100
AcDbArc
50
-49.046760
51
-40.953239
0
LINE
5
3f9
100
AcDbEntity
8
1
100
AcDbLine
6
CONTINUOUS
62
5
10
301.252234
20
495.617193
11
301.252234
21
504.990026
0
ARC
5
3fa
100
AcDbEntity
8
1
100
AcDbCircle
6
CONTINUOUS
62
5
10
295.852234
20
500.303609
40
7.150000
100
AcDbArc
50
40.953239
51
49.046760
0
POLYLINE
5
3fb
100
AcDbEntity
8
1
6
CONTINUOUS
62
5
100
AcDb2dPolyline
66
1
10
0.0
20
0.0
30
0.0
70
0
0
VERTEX
5
3fc
100
AcDbEntity
8
1
100
AcDbVertex
100
AcDb2dVertex
62
5
10
300.538650
20
505.703609
0
VERTEX
5
3fd
100
AcDbEntity
8
1
100
AcDbVertex
100
AcDb2dVertex
62
5
10
295.852234
20
505.703609
0
VERTEX
5
3fe
100
AcDbEntity
8
1
100
AcDbVertex
100
AcDb2dVertex
62
5
10
291.165817
20
505.703609
0
SEQEND
5
3ff
100
AcDbEntity
8
1
0
ARC
5
400
100
AcDbEntity
8
1
100
AcDbCircle
6
CONTINUOUS
62
5
10
300.094874
20
496.060968
40
0.900000
100
AcDbArc
50
89.999999
51
179.999998
0
POLYLINE
5
401
100
AcDbEntity
8
1
6
CONTINUOUS
62
5
100
AcDb2dPolyline
66
1
10
0.0
20
0.0
30
0.0
70
0
0
VERTEX
5
402
100
AcDbEntity
8
1
100
AcDbVertex
100
AcDb2dVertex
62
5
10
300.094874
20
496.960968
0
VERTEX
5
403
100
AcDbEntity
8
1
100
AcDbVertex
100
AcDb2dVertex
62
5
10
300.852234
20
496.960968
0
VERTEX
5
404
100
AcDbEntity
8
1
100
AcDbVertex
100
AcDb2dVertex
62
5
10
301.252234
20
497.360968
0
VERTEX
5
405
100
AcDbEntity
8
1
100
AcDbVertex
100
AcDb2dVertex
62
5
10
301.252234
20
497.953314
0
SEQEND
5
406
100
AcDbEntity
8
1
0
POLYLINE
5
407
100
AcDbEntity
8
1
6
CONTINUOUS
62
5
100
AcDb2dPolyline
66
1
10
0.0
20
0.0
30
0.0
70
0
0
VERTEX
5
408
100
AcDbEntity
8
1
100
AcDbVertex
100
AcDb2dVertex
62
5
10
298.312750
20
494.903609
0
VERTEX
5
409
100
AcDbEntity
8
1
100
AcDbVertex
100
AcDb2dVertex
62
5
10
298.794874
20
494.903609
0
VERTEX
5
40a
100
AcDbEntity
8
1
100
AcDbVertex
100
AcDb2dVertex
62
5
10
299.194874
20
495.303609
0
VERTEX
5
40b
100
AcDbEntity
8
1
100
AcDbVertex
100
AcDb2dVertex
62
5
10
299.194874
20
496.060968
0
SEQEND
5
40c
100
AcDbEntity
8
1
0
ARC
5
40d
100
AcDbEntity
8
1
100
AcDbCircle
6
CONTINUOUS
62
5
10
291.609593
20
496.060968
40
0.900000
100
AcDbArc
50
0.000000
51
89.999999
0
POLYLINE
5
40e
100
AcDbEntity
8
1
6
CONTINUOUS
62
5
100
AcDb2dPolyline
66
1
10
0.0
20
0.0
30
0.0
70
0
0
VERTEX
5
40f
100
AcDbEntity
8
1
100
AcDbVertex
100
AcDb2dVertex
62
5
10
292.509593
20
496.060968
0
VERTEX
5
410
100
AcDbEntity
8
1
100
AcDbVertex
100
AcDb2dVertex
62
5
10
292.509593
20
495.303609
0
VERTEX
5
411
100
AcDbEntity
8
1
100
AcDbVertex
100
AcDb2dVertex
62
5
10
292.909593
20
494.903609
0
VERTEX
5
412
100
AcDbEntity
8
1
100
AcDbVertex
100
AcDb2dVertex
62
5
10
293.501939
20
494.903609
0
SEQEND
5
413
100
AcDbEntity
8
1
0
POLYLINE
5
414
100
AcDbEntity
8
1
6
CONTINUOUS
62
5
100
AcDb2dPolyline
66
1
10
0.0
20
0.0
30
0.0
70
0
0
VERTEX
5
415
100
AcDbEntity
8
1
100
AcDbVertex
100
AcDb2dVertex
62
5
10
290.452234
20
497.843093
0
VERTEX
5
416
100
AcDbEntity
8
1
100
AcDbVertex
100
AcDb2dVertex
62
5
10
290.452234
20
497.360968
0
VERTEX
5
417
100
AcDbEntity
8
1
100
AcDbVertex
100
AcDb2dVertex
62
5
10
290.852234
20
496.960968
0
VERTEX
5
418
100
AcDbEntity
8
1
100
AcDbVertex
100
AcDb2dVertex
62
5
10
291.609593
20
496.960968
0
SEQEND
5
419
100
AcDbEntity
8
1
0
LINE
5
41a
100
AcDbEntity
8
1
100
AcDbLine
6
DOT2
62
5
10
295.852234
20
506.768910
11
295.852234
21
491.423076
0
LINE
5
41b
100
AcDbEntity
8
1
100
AcDbLine
6
DOT2
62
5
10
295.852234
20
506.355844
11
295.852234
21
492.504907
0
ARC
5
41c
100
AcDbEntity
8
1
100
AcDbCircle
6
CONTINUOUS
62
5
10
303.852234
20
496.303609
40
2.000000
100
AcDbArc
50
-89.999999
51
0.000000
0
LINE
5
41d
100
AcDbEntity
8
1
100
AcDbLine
6
CONTINUOUS
62
5
10
305.852234
20
496.303609
11
305.852234
21
504.303609
0
ARC
5
41e
100
AcDbEntity
8
1
100
AcDbCircle
6
CONTINUOUS
62
5
10
303.852234
20
504.303609
40
2.000000
100
AcDbArc
50
0.000000
51
89.999999
0
LINE
5
41f
100
AcDbEntity
8
1
100
AcDbLine
6
CONTINUOUS
62
5
10
303.852234
20
506.303609
11
287.852234
21
506.303609
0
ARC
5
420
100
AcDbEntity
8
1
100
AcDbCircle
6
CONTINUOUS
62
5
10
287.852234
20
504.303609
40
2.000000
100
AcDbArc
50
89.999999
51
179.999998
0
LINE
5
421
100
AcDbEntity
8
1
100
AcDbLine
6
CONTINUOUS
62
5
10
285.852234
20
504.303609
11
285.852234
21
496.303609
0
ARC
5
422
100
AcDbEntity
8
1
100
AcDbCircle
6
CONTINUOUS
62
5
10
287.852234
20
496.303609
40
2.000000
100
AcDbArc
50
179.999998
51
-89.999999
0
LINE
5
423
100
AcDbEntity
8
1
100
AcDbLine
6
CONTINUOUS
62
5
10
287.852234
20
494.303609
11
293.052234
21
494.303609
0
LINE
5
424
100
AcDbEntity
8
1
100
AcDbLine
6
CONTINUOUS
62
5
10
298.652234
20
494.303609
11
303.852234
21
494.303609
0
LINE
5
425
100
AcDbEntity
8
1
100
AcDbLine
6
DOT2
62
5
10
366.837009
20
565.614086
11
366.837009
21
561.298071
0
LINE
5
426
100
AcDbEntity
8
1
100
AcDbLine
6
DOT2
62
5
10
366.837009
20
545.075805
11
366.837009
21
540.710180
0
LINE
5
427
100
AcDbEntity
8
1
100
AcDbLine
6
DOT2
62
5
10
366.837009
20
470.511938
11
366.837009
21
465.685940
0
LINE
5
428
100
AcDbEntity
8
1
100
AcDbLine
6
CONTINUOUS
62
5
10
361.373393
20
559.715376
11
377.837016
21
563.174255
0
LINE
5
429
100
AcDbEntity
8
1
100
AcDbLine
6
DOT2
62
5
10
365.332334
20
563.174255
11
368.308897
21
563.174255
0
LINE
5
42a
100
AcDbEntity
8
1
100
AcDbLine
6
DOT2
62
5
10
365.460595
20
543.174255
11
368.192927
21
543.174255
0
POLYLINE
5
42b
100
AcDbEntity
8
1
6
CONTINUOUS
62
5
100
AcDb2dPolyline
66
1
10
0.0
20
0.0
30
0.0
70
0
0
VERTEX
5
42c
100
AcDbEntity
8
1
100
AcDbVertex
100
AcDb2dVertex
62
5
10
380.237016
20
543.174255
0
VERTEX
5
42d
100
AcDbEntity
8
1
100
AcDbVertex
100
AcDb2dVertex
62
5
10
377.837016
20
543.174255
0
VERTEX
5
42e
100
AcDbEntity
8
1
100
AcDbVertex
100
AcDb2dVertex
62
5
10
361.481666
20
544.656207
0
VERTEX
5
42f
100
AcDbEntity
8
1
100
AcDbVertex
100
AcDb2dVertex
62
5
10
361.270133
20
544.909894
0
VERTEX
5
430
100
AcDbEntity
8
1
100
AcDbVertex
100
AcDb2dVertex
62
5
10
360.837016
20
553.174255
0
VERTEX
5
431
100
AcDbEntity
8
1
100
AcDbVertex
100
AcDb2dVertex
62
5
10
361.272015
20
561.474529
0
VERTEX
5
432
100
AcDbEntity
8
1
100
AcDbVertex
100
AcDb2dVertex
62
5
10
361.517481
20
561.695548
0
VERTEX
5
433
100
AcDbEntity
8
1
100
AcDbVertex
100
AcDb2dVertex
62
5
10
377.837016
20
563.174255
0
VERTEX
5
434
100
AcDbEntity
8
1
100
AcDbVertex
100
AcDb2dVertex
62
5
10
380.237016
20
563.174255
0
SEQEND
5
435
100
AcDbEntity
8
1
0
ARC
5
436
100
AcDbEntity
8
1
100
AcDbCircle
6
CONTINUOUS
62
5
10
370.274876
20
559.974255
40
0.400000
100
AcDbArc
50
89.999999
51
100.813877
0
LINE
5
437
100
AcDbEntity
8
1
100
AcDbLine
6
CONTINUOUS
62
5
10
370.199828
20
560.367152
11
361.499492
21
558.705290
0
ARC
5
438
100
AcDbEntity
8
1
100
AcDbCircle
6
CONTINUOUS
62
5
10
361.537016
20
558.508841
40
0.200000
100
AcDbArc
50
100.813877
51
179.999998
0
LINE
5
439
100
AcDbEntity
8
1
100
AcDbLine
6
CONTINUOUS
62
5
10
361.337016
20
558.508841
11
361.337016
21
547.839668
0
ARC
5
43a
100
AcDbEntity
8
1
100
AcDbCircle
6
CONTINUOUS
62
5
10
361.537016
20
547.839668
40
0.200000
100
AcDbArc
50
179.999998
51
-100.813877
0
LINE
5
43b
100
AcDbEntity
8
1
100
AcDbLine
6
CONTINUOUS
62
5
10
361.499492
20
547.643220
11
370.199828
21
545.981358
0
ARC
5
43c
100
AcDbEntity
8
1
100
AcDbCircle
6
CONTINUOUS
62
5
10
370.274876
20
546.374255
40
0.400000
100
AcDbArc
50
-100.813877
51
-89.999999
0
POLYLINE
5
43d
100
AcDbEntity
8
1
6
CONTINUOUS
62
5
100
AcDb2dPolyline
66
1
10
0.0
20
0.0
30
0.0
70
0
0
VERTEX
5
43e
100
AcDbEntity
8
1
100
AcDbVertex
100
AcDb2dVertex
62
5
10
370.274876
20
545.974255
0
VERTEX
5
43f
100
AcDbEntity
8
1
100
AcDbVertex
100
AcDb2dVertex
62
5
10
380.237016
20
545.974255
0
VERTEX
5
440
100
AcDbEntity
8
1
100
AcDbVertex
100
AcDb2dVertex
62
5
10
380.237016
20
551.788614
0
SEQEND
5
441
100
AcDbEntity
8
1
0
ARC
5
442
100
AcDbEntity
8
1
100
AcDbCircle
6
CONTINUOUS
62
5
10
380.037016
20
551.788614
40
0.200000
100
AcDbArc
50
0.000000
51
81.786789
0
ARC
5
443
100
AcDbEntity
8
1
100
AcDbCircle
6
CONTINUOUS
62
5
10
380.237016
20
553.174255
40
1.200000
100
AcDbArc
50
98.213210
51
-98.213210
0
ARC
5
444
100
AcDbEntity
8
1
100
AcDbCircle
6
CONTINUOUS
62
5
10
380.037016
20
554.559895
40
0.200000
100
AcDbArc
50
-81.786789
51
0.000000
0
POLYLINE
5
445
100
AcDbEntity
8
1
6
CONTINUOUS
62
5
100
AcDb2dPolyline
66
1
10
0.0
20
0.0
30
0.0
70
0
0
VERTEX
5
446
100
AcDbEntity
8
1
100
AcDbVertex
100
AcDb2dVertex
62
5
10
380.237016
20
554.559895
0
VERTEX
5
447
100
AcDbEntity
8
1
100
AcDbVertex
100
AcDb2dVertex
62
5
10
380.237016
20
560.374255
0
VERTEX
5
448
100
AcDbEntity
8
1
100
AcDbVertex
100
AcDb2dVertex
62
5
10
370.274876
20
560.374255
0
SEQEND
5
449
100
AcDbEntity
8
1
0
LINE
5
44a
100
AcDbEntity
8
1
100
AcDbLine
6
CONTINUOUS
62
5
10
361.373393
20
546.633134
11
377.837016
21
543.174255
0
ARC
5
44b
100
AcDbEntity
8
1
100
AcDbCircle
6
CONTINUOUS
62
5
10
400.436996
20
468.483613
40
0.600000
100
AcDbArc
50
89.999999
51
179.999998
0
POLYLINE
5
44c
100
AcDbEntity
8
1
6
CONTINUOUS
62
5
100
AcDb2dPolyline
66
1
10
0.0
20
0.0
30
0.0
70
0
0
VERTEX
5
44d
100
AcDbEntity
8
1
100
AcDbVertex
100
AcDb2dVertex
62
5
10
399.836996
20
468.483613
0
VERTEX
5
44e
100
AcDbEntity
8
1
100
AcDbVertex
100
AcDb2dVertex
62
5
10
399.836996
20
466.583614
0
VERTEX
5
44f
100
AcDbEntity
8
1
100
AcDbVertex
100
AcDb2dVertex
62
5
10
382.637003
20
466.583614
0
VERTEX
5
450
100
AcDbEntity
8
1
100
AcDbVertex
100
AcDb2dVertex
62
5
10
382.637003
20
468.583613
0
VERTEX
5
451
100
AcDbEntity
8
1
100
AcDbVertex
100
AcDb2dVertex
62
5
10
380.237004
20
468.583613
0
VERTEX
5
452
100
AcDbEntity
8
1
100
AcDbVertex
100
AcDb2dVertex
62
5
10
380.237004
20
466.583614
0
VERTEX
5
453
100
AcDbEntity
8
1
100
AcDbVertex
100
AcDb2dVertex
62
5
10
360.837012
20
466.583614
0
VERTEX
5
454
100
AcDbEntity
8
1
100
AcDbVertex
100
AcDb2dVertex
62
5
10
360.837012
20
487.383606
0
VERTEX
5
455
100
AcDbEntity
8
1
100
AcDbVertex
100
AcDb2dVertex
62
5
10
361.037012
20
487.583606
0
VERTEX
5
456
100
AcDbEntity
8
1
100
AcDbVertex
100
AcDb2dVertex
62
5
10
380.237004
20
487.583606
0
SEQEND
5
457
100
AcDbEntity
8
1
0
POLYLINE
5
458
100
AcDbEntity
8
1
6
CONTINUOUS
62
5
100
AcDb2dPolyline
66
1
10
0.0
20
0.0
30
0.0
70
0
0
VERTEX
5
459
100
AcDbEntity
8
1
100
AcDbVertex
100
AcDb2dVertex
62
5
10
416.836989
20
487.383606
0
VERTEX
5
45a
100
AcDbEntity
8
1
100
AcDbVertex
100
AcDb2dVertex
62
5
10
416.836989
20
469.283613
0
VERTEX
5
45b
100
AcDbEntity
8
1
100
AcDbVertex
100
AcDb2dVertex
62
5
10
416.636989
20
469.083613
0
VERTEX
5
45c
100
AcDbEntity
8
1
100
AcDbVertex
100
AcDb2dVertex
62
5
10
400.436996
20
469.083613
0
SEQEND
5
45d
100
AcDbEntity
8
1
0
ARC
5
45e
100
AcDbEntity
8
1
100
AcDbCircle
6
CONTINUOUS
62
5
10
363.337011
20
469.583613
40
0.600000
100
AcDbArc
50
-89.999999
51
0.000000
0
POLYLINE
5
45f
100
AcDbEntity
8
1
6
CONTINUOUS
62
5
100
AcDb2dPolyline
66
1
10
0.0
20
0.0
30
0.0
70
0
0
VERTEX
5
460
100
AcDbEntity
8
1
100
AcDbVertex
100
AcDb2dVertex
62
5
10
363.937011
20
469.583613
0
VERTEX
5
461
100
AcDbEntity
8
1
100
AcDbVertex
100
AcDb2dVertex
62
5
10
363.937011
20
469.583613
0
VERTEX
5
462
100
AcDbEntity
8
1
100
AcDbVertex
100
AcDb2dVertex
62
5
10
369.737008
20
469.583613
0
VERTEX
5
463
100
AcDbEntity
8
1
100
AcDbVertex
100
AcDb2dVertex
62
5
10
369.737008
20
469.583613
0
SEQEND
5
464
100
AcDbEntity
8
1
0
ARC
5
465
100
AcDbEntity
8
1
100
AcDbCircle
6
CONTINUOUS
62
5
10
370.337008
20
469.583613
40
0.600000
100
AcDbArc
50
179.999998
51
-89.999999
0
LINE
5
466
100
AcDbEntity
8
1
100
AcDbLine
6
CONTINUOUS
62
5
10
370.337008
20
468.983613
11
390.337000
21
468.983613
0
ARC
5
467
100
AcDbEntity
8
1
100
AcDbCircle
6
CONTINUOUS
62
5
10
390.337000
20
469.583613
40
0.600000
100
AcDbArc
50
-89.999999
51
0.000000
0
POLYLINE
5
468
100
AcDbEntity
8
1
6
CONTINUOUS
62
5
100
AcDb2dPolyline
66
1
10
0.0
20
0.0
30
0.0
70
0
0
VERTEX
5
469
100
AcDbEntity
8
1
100
AcDbVertex
100
AcDb2dVertex
62
5
10
390.937000
20
469.583613
0
VERTEX
5
46a
100
AcDbEntity
8
1
100
AcDbVertex
100
AcDb2dVertex
62
5
10
390.937000
20
469.583613
0
VERTEX
5
46b
100
AcDbEntity
8
1
100
AcDbVertex
100
AcDb2dVertex
62
5
10
396.736997
20
469.583613
0
VERTEX
5
46c
100
AcDbEntity
8
1
100
AcDbVertex
100
AcDb2dVertex
62
5
10
396.736997
20
469.583613
0
SEQEND
5
46d
100
AcDbEntity
8
1
0
ARC
5
46e
100
AcDbEntity
8
1
100
AcDbCircle
6
CONTINUOUS
62
5
10
397.336997
20
469.583613
40
0.600000
100
AcDbArc
50
179.999998
51
-89.999999
0
LINE
5
46f
100
AcDbEntity
8
1
100
AcDbLine
6
CONTINUOUS
62
5
10
397.336997
20
468.983613
11
399.836996
21
468.983613
0
LINE
5
470
100
AcDbEntity
8
1
100
AcDbLine
6
CONTINUOUS
62
5
10
360.837012
20
468.983613
11
363.337011
21
468.983613
0
LINE
5
471
100
AcDbEntity
8
1
100
AcDbLine
6
CONTINUOUS
62
5
10
363.937011
20
470.183613
11
369.737008
21
470.183613
0
LINE
5
472
100
AcDbEntity
8
1
100
AcDbLine
6
CONTINUOUS
62
5
10
365.737010
20
466.583614
11
367.937009
21
466.583614
0
POLYLINE
5
473
100
AcDbEntity
8
1
6
CONTINUOUS
62
5
100
AcDb2dPolyline
66
1
10
0.0
20
0.0
30
0.0
70
1
0
VERTEX
5
474
100
AcDbEntity
8
1
100
AcDbVertex
100
AcDb2dVertex
62
5
10
380.226153
20
477.904209
0
VERTEX
5
475
100
AcDbEntity
8
1
100
AcDbVertex
100
AcDb2dVertex
62
5
10
416.836989
20
477.904209
0
VERTEX
5
476
100
AcDbEntity
8
1
100
AcDbVertex
100
AcDb2dVertex
62
5
10
380.226153
20
477.904209
0
SEQEND
5
477
100
AcDbEntity
8
1
0
LINE
5
478
100
AcDbEntity
8
1
100
AcDbLine
6
CONTINUOUS
62
5
10
378.247856
20
477.904209
11
365.226159
21
477.904209
0
POLYLINE
5
479
100
AcDbEntity
8
1
6
CONTINUOUS
62
5
100
AcDb2dPolyline
66
1
10
0.0
20
0.0
30
0.0
70
1
0
VERTEX
5
47a
100
AcDbEntity
8
1
100
AcDbVertex
100
AcDb2dVertex
62
5
10
363.247862
20
477.904209
0
VERTEX
5
47b
100
AcDbEntity
8
1
100
AcDbVertex
100
AcDb2dVertex
62
5
10
360.837012
20
477.904209
0
VERTEX
5
47c
100
AcDbEntity
8
1
100
AcDbVertex
100
AcDb2dVertex
62
5
10
363.247862
20
477.904209
0
SEQEND
5
47d
100
AcDbEntity
8
1
0
LINE
5
47e
100
AcDbEntity
8
1
100
AcDbLine
6
CONTINUOUS
62
5
10
365.226159
20
477.904209
11
378.247856
21
477.904209
0
LINE
5
47f
100
AcDbEntity
8
1
100
AcDbLine
6
CONTINUOUS
62
5
10
360.837012
20
472.707967
11
416.836989
21
472.707967
0
POLYLINE
5
480
100
AcDbEntity
8
1
6
CONTINUOUS
62
5
100
AcDb2dPolyline
66
1
10
0.0
20
0.0
30
0.0
70
0
0
VERTEX
5
481
100
AcDbEntity
8
1
100
AcDbVertex
100
AcDb2dVertex
62
5
10
363.356968
20
487.583606
0
VERTEX
5
482
100
AcDbEntity
8
1
100
AcDbVertex
100
AcDb2dVertex
62
5
10
361.337012
20
487.583606
0
VERTEX
5
483
100
AcDbEntity
8
1
100
AcDbVertex
100
AcDb2dVertex
62
5
10
361.337012
20
487.783605
0
VERTEX
5
484
100
AcDbEntity
8
1
100
AcDbVertex
100
AcDb2dVertex
62
5
10
363.337011
20
487.783605
0
VERTEX
5
485
100
AcDbEntity
8
1
100
AcDbVertex
100
AcDb2dVertex
62
5
10
378.219507
20
490.783604
0
VERTEX
5
486
100
AcDbEntity
8
1
100
AcDbVertex
100
AcDb2dVertex
62
5
10
380.237004
20
490.783604
0
VERTEX
5
487
100
AcDbEntity
8
1
100
AcDbVertex
100
AcDb2dVertex
62
5
10
380.237004
20
490.583604
0
SEQEND
5
488
100
AcDbEntity
8
1
0
ARC
5
489
100
AcDbEntity
8
1
100
AcDbCircle
6
CONTINUOUS
62
5
10
380.037013
20
487.783606
40
0.200000
100
AcDbArc
50
-89.999999
51
0.000000
0
LINE
5
48a
100
AcDbEntity
8
1
100
AcDbLine
6
CONTINUOUS
62
5
10
380.237013
20
487.783606
11
380.237013
21
490.583606
0
LINE
5
48b
100
AcDbEntity
8
1
100
AcDbLine
6
CONTINUOUS
62
5
10
363.356970
20
487.583606
11
380.037013
21
487.583606
0
ARC
5
48c
100
AcDbEntity
8
1
100
AcDbCircle
6
CONTINUOUS
62
5
10
380.037004
20
487.783605
40
0.200000
100
AcDbArc
50
-89.999999
51
0.000000
0
LINE
5
48d
100
AcDbEntity
8
1
100
AcDbLine
6
CONTINUOUS
62
5
10
380.237004
20
487.783605
11
380.237004
21
490.583604
0
LINE
5
48e
100
AcDbEntity
8
1
100
AcDbLine
6
CONTINUOUS
62
5
10
363.356968
20
487.583606
11
380.037004
21
487.583606
0
LINE
5
48f
100
AcDbEntity
8
1
100
AcDbLine
6
DOT2
62
5
10
350.360934
20
553.174255
11
434.316618
21
553.174255
0
LINE
5
490
100
AcDbEntity
8
1
100
AcDbLine
6
DOT2
62
5
10
349.824428
20
478.583609
11
434.174816
21
478.583609
0
LINE
5
491
100
AcDbEntity
8
1
100
AcDbLine
6
DOT2
62
3
10
433.836983
20
508.983597
11
433.836983
21
516.083595
0
LINE
5
492
100
AcDbEntity
8
1
100
AcDbLine
6
DOT2
62
3
10
391.037068
20
500.303614
11
391.037068
21
516.083595
0
POLYLINE
5
493
100
AcDbEntity
8
1
6
DOT2
62
3
100
AcDb2dPolyline
66
1
10
0.0
20
0.0
30
0.0
70
0
0
VERTEX
5
494
100
AcDbEntity
8
1
100
AcDbVertex
100
AcDb2dVertex
62
3
10
412.437025
20
515.083595
0
VERTEX
5
495
100
AcDbEntity
8
1
100
AcDbVertex
100
AcDb2dVertex
62
3
10
391.037068
20
515.083595
0
VERTEX
5
496
100
AcDbEntity
8
1
100
AcDbVertex
100
AcDb2dVertex
62
3
10
394.085068
20
515.591595
0
VERTEX
5
497
100
AcDbEntity
8
1
100
AcDbVertex
100
AcDb2dVertex
62
3
10
394.085068
20
514.575595
0
VERTEX
5
498
100
AcDbEntity
8
1
100
AcDbVertex
100
AcDb2dVertex
62
3
10
391.037068
20
515.083595
0
VERTEX
5
499
100
AcDbEntity
8
1
100
AcDbVertex
100
AcDb2dVertex
62
3
10
394.085068
20
515.337595
0
VERTEX
5
49a
100
AcDbEntity
8
1
100
AcDbVertex
100
AcDb2dVertex
62
3
10
394.085068
20
514.829595
0
VERTEX
5
49b
100
AcDbEntity
8
1
100
AcDbVertex
100
AcDb2dVertex
62
3
10
391.037068
20
515.083595
0
SEQEND
5
49c
100
AcDbEntity
8
1
0
POLYLINE
5
49d
100
AcDbEntity
8
1
6
DOT2
62
3
100
AcDb2dPolyline
66
1
10
0.0
20
0.0
30
0.0
70
0
0
VERTEX
5
49e
100
AcDbEntity
8
1
100
AcDbVertex
100
AcDb2dVertex
62
3
10
412.437025
20
515.083595
0
VERTEX
5
49f
100
AcDbEntity
8
1
100
AcDbVertex
100
AcDb2dVertex
62
3
10
433.836983
20
515.083595
0
VERTEX
5
4a0
100
AcDbEntity
8
1
100
AcDbVertex
100
AcDb2dVertex
62
3
10
430.788983
20
514.575595
0
VERTEX
5
4a1
100
AcDbEntity
8
1
100
AcDbVertex
100
AcDb2dVertex
62
3
10
430.788983
20
515.591595
0
VERTEX
5
4a2
100
AcDbEntity
8
1
100
AcDbVertex
100
AcDb2dVertex
62
3
10
433.836983
20
515.083595
0
VERTEX
5
4a3
100
AcDbEntity
8
1
100
AcDbVertex
100
AcDb2dVertex
62
3
10
430.788983
20
514.829595
0
VERTEX
5
4a4
100
AcDbEntity
8
1
100
AcDbVertex
100
AcDb2dVertex
62
3
10
430.788983
20
515.337595
0
VERTEX
5
4a5
100
AcDbEntity
8
1
100
AcDbVertex
100
AcDb2dVertex
62
3
10
433.836983
20
515.083595
0
SEQEND
5
4a6
100
AcDbEntity
8
1
0
TEXT
5
4a7
100
AcDbEntity
8
1
62
3
100
AcDbText
10
407.551905
20
515.783995
40
3.200000
41
0.825
1
(214)
7
STANDARD
72
0
100
AcDbText
0
LINE
5
4a8
100
AcDbEntity
8
0
100
AcDbLine
6
DOT2
62
3
10
368.037009
20
469.583613
11
374.962005
21
469.583613
0
LINE
5
4a9
100
AcDbEntity
8
0
100
AcDbLine
6
DOT2
62
3
10
367.937009
20
466.583614
11
374.962005
21
466.583614
0
POLYLINE
5
4aa
100
AcDbEntity
8
0
6
DOT2
62
3
100
AcDb2dPolyline
66
1
10
0.0
20
0.0
30
0.0
70
0
0
VERTEX
5
4ab
100
AcDbEntity
8
0
100
AcDbVertex
100
AcDb2dVertex
62
3
10
373.962005
20
455.769055
0
VERTEX
5
4ac
100
AcDbEntity
8
0
100
AcDbVertex
100
AcDb2dVertex
62
3
10
373.962005
20
466.583614
0
VERTEX
5
4ad
100
AcDbEntity
8
0
100
AcDbVertex
100
AcDb2dVertex
62
3
10
374.470005
20
463.535614
0
VERTEX
5
4ae
100
AcDbEntity
8
0
100
AcDbVertex
100
AcDb2dVertex
62
3
10
373.454005
20
463.535614
0
VERTEX
5
4af
100
AcDbEntity
8
0
100
AcDbVertex
100
AcDb2dVertex
62
3
10
373.962005
20
466.583614
0
VERTEX
5
4b0
100
AcDbEntity
8
0
100
AcDbVertex
100
AcDb2dVertex
62
3
10
374.216005
20
463.535614
0
VERTEX
5
4b1
100
AcDbEntity
8
0
100
AcDbVertex
100
AcDb2dVertex
62
3
10
373.708005
20
463.535614
0
VERTEX
5
4b2
100
AcDbEntity
8
0
100
AcDbVertex
100
AcDb2dVertex
62
3
10
373.962005
20
466.583614
0
SEQEND
5
4b3
100
AcDbEntity
8
0
0
LINE
5
4b4
100
AcDbEntity
8
0
100
AcDbLine
6
DOT2
62
3
10
373.962005
20
466.583614
11
373.962005
21
469.583613
0
POLYLINE
5
4b5
100
AcDbEntity
8
0
6
DOT2
62
3
100
AcDb2dPolyline
66
1
10
0.0
20
0.0
30
0.0
70
0
0
VERTEX
5
4b6
100
AcDbEntity
8
0
100
AcDbVertex
100
AcDb2dVertex
62
3
10
373.962005
20
474.631613
0
VERTEX
5
4b7
100
AcDbEntity
8
0
100
AcDbVertex
100
AcDb2dVertex
62
3
10
373.962005
20
469.583613
0
VERTEX
5
4b8
100
AcDbEntity
8
0
100
AcDbVertex
100
AcDb2dVertex
62
3
10
373.454005
20
472.631613
0
VERTEX
5
4b9
100
AcDbEntity
8
0
100
AcDbVertex
100
AcDb2dVertex
62
3
10
374.470005
20
472.631613
0
VERTEX
5
4ba
100
AcDbEntity
8
0
100
AcDbVertex
100
AcDb2dVertex
62
3
10
373.962005
20
469.583613
0
VERTEX
5
4bb
100
AcDbEntity
8
0
100
AcDbVertex
100
AcDb2dVertex
62
3
10
373.708005
20
472.631613
0
VERTEX
5
4bc
100
AcDbEntity
8
0
100
AcDbVertex
100
AcDb2dVertex
62
3
10
374.216005
20
472.631613
0
VERTEX
5
4bd
100
AcDbEntity
8
0
100
AcDbVertex
100
AcDb2dVertex
62
3
10
373.962005
20
469.583613
0
SEQEND
5
4be
100
AcDbEntity
8
0
0
TEXT
5
4bf
100
AcDbEntity
8
0
62
3
100
AcDbText
10
373.261605
20
456.212415
40
3.200000
41
0.825
1
(15)
50
90.000000
7
STANDARD
72
0
100
AcDbText
0
LINE
5
4c0
100
AcDbEntity
8
0
100
AcDbLine
6
DOT2
62
3
10
382.637003
20
468.583613
11
388.815338
21
468.583613
0
LINE
5
4c1
100
AcDbEntity
8
0
100
AcDbLine
6
DOT2
62
3
10
382.637003
20
466.583614
11
388.815338
21
466.583614
0
POLYLINE
5
4c2
100
AcDbEntity
8
0
6
DOT2
62
3
100
AcDb2dPolyline
66
1
10
0.0
20
0.0
30
0.0
70
0
0
VERTEX
5
4c3
100
AcDbEntity
8
0
100
AcDbVertex
100
AcDb2dVertex
62
3
10
387.815338
20
457.557389
0
VERTEX
5
4c4
100
AcDbEntity
8
0
100
AcDbVertex
100
AcDb2dVertex
62
3
10
387.815338
20
466.583614
0
VERTEX
5
4c5
100
AcDbEntity
8
0
100
AcDbVertex
100
AcDb2dVertex
62
3
10
388.323338
20
463.535614
0
VERTEX
5
4c6
100
AcDbEntity
8
0
100
AcDbVertex
100
AcDb2dVertex
62
3
10
387.307338
20
463.535614
0
VERTEX
5
4c7
100
AcDbEntity
8
0
100
AcDbVertex
100
AcDb2dVertex
62
3
10
387.815338
20
466.583614
0
VERTEX
5
4c8
100
AcDbEntity
8
0
100
AcDbVertex
100
AcDb2dVertex
62
3
10
388.069338
20
463.535614
0
VERTEX
5
4c9
100
AcDbEntity
8
0
100
AcDbVertex
100
AcDb2dVertex
62
3
10
387.561338
20
463.535614
0
VERTEX
5
4ca
100
AcDbEntity
8
0
100
AcDbVertex
100
AcDb2dVertex
62
3
10
387.815338
20
466.583614
0
SEQEND
5
4cb
100
AcDbEntity
8
0
0
LINE
5
4cc
100
AcDbEntity
8
0
100
AcDbLine
6
DOT2
62
3
10
387.815338
20
466.583614
11
387.815338
21
468.583613
0
POLYLINE
5
4cd
100
AcDbEntity
8
0
6
DOT2
62
3
100
AcDb2dPolyline
66
1
10
0.0
20
0.0
30
0.0
70
0
0
VERTEX
5
4ce
100
AcDbEntity
8
0
100
AcDbVertex
100
AcDb2dVertex
62
3
10
387.815338
20
473.631613
0
VERTEX
5
4cf
100
AcDbEntity
8
0
100
AcDbVertex
100
AcDb2dVertex
62
3
10
387.815338
20
468.583613
0
VERTEX
5
4d0
100
AcDbEntity
8
0
100
AcDbVertex
100
AcDb2dVertex
62
3
10
387.307338
20
471.631613
0
VERTEX
5
4d1
100
AcDbEntity
8
0
100
AcDbVertex
100
AcDb2dVertex
62
3
10
388.323338
20
471.631613
0
VERTEX
5
4d2
100
AcDbEntity
8
0
100
AcDbVertex
100
AcDb2dVertex
62
3
10
387.815338
20
468.583613
0
VERTEX
5
4d3
100
AcDbEntity
8
0
100
AcDbVertex
100
AcDb2dVertex
62
3
10
387.561338
20
471.631613
0
VERTEX
5
4d4
100
AcDbEntity
8
0
100
AcDbVertex
100
AcDb2dVertex
62
3
10
388.069338
20
471.631613
0
VERTEX
5
4d5
100
AcDbEntity
8
0
100
AcDbVertex
100
AcDb2dVertex
62
3
10
387.815338
20
468.583613
0
SEQEND
5
4d6
100
AcDbEntity
8
0
0
TEXT
5
4d7
100
AcDbEntity
8
0
62
3
100
AcDbText
10
387.114938
20
458.352749
40
3.200000
41
0.825
1
10
50
90.000000
7
STANDARD
72
0
100
AcDbText
0
LINE
5
4d8
100
AcDbEntity
8
0
100
AcDbLine
6
DOT2
62
3
10
380.237004
20
466.583614
11
380.237004
21
448.863264
0
LINE
5
4d9
100
AcDbEntity
8
0
100
AcDbLine
6
DOT2
62
3
10
382.637003
20
466.583614
11
382.637003
21
448.863264
0
POLYLINE
5
4da
100
AcDbEntity
8
0
6
DOT2
62
3
100
AcDb2dPolyline
66
1
10
0.0
20
0.0
30
0.0
70
0
0
VERTEX
5
4db
100
AcDbEntity
8
0
100
AcDbVertex
100
AcDb2dVertex
62
3
10
406.827560
20
449.863264
0
VERTEX
5
4dc
100
AcDbEntity
8
0
100
AcDbVertex
100
AcDb2dVertex
62
3
10
382.637003
20
449.863264
0
VERTEX
5
4dd
100
AcDbEntity
8
0
100
AcDbVertex
100
AcDb2dVertex
62
3
10
385.685003
20
450.371264
0
VERTEX
5
4de
100
AcDbEntity
8
0
100
AcDbVertex
100
AcDb2dVertex
62
3
10
385.685003
20
449.355264
0
VERTEX
5
4df
100
AcDbEntity
8
0
100
AcDbVertex
100
AcDb2dVertex
62
3
10
382.637003
20
449.863264
0
VERTEX
5
4e0
100
AcDbEntity
8
0
100
AcDbVertex
100
AcDb2dVertex
62
3
10
385.685003
20
450.117264
0
VERTEX
5
4e1
100
AcDbEntity
8
0
100
AcDbVertex
100
AcDb2dVertex
62
3
10
385.685003
20
449.609264
0
VERTEX
5
4e2
100
AcDbEntity
8
0
100
AcDbVertex
100
AcDb2dVertex
62
3
10
382.637003
20
449.863264
0
SEQEND
5
4e3
100
AcDbEntity
8
0
0
LINE
5
4e4
100
AcDbEntity
8
0
100
AcDbLine
6
DOT2
62
3
10
382.637003
20
449.863264
11
380.237004
21
449.863264
0
POLYLINE
5
4e5
100
AcDbEntity
8
0
6
DOT2
62
3
100
AcDb2dPolyline
66
1
10
0.0
20
0.0
30
0.0
70
0
0
VERTEX
5
4e6
100
AcDbEntity
8
0
100
AcDbVertex
100
AcDb2dVertex
62
3
10
375.189004
20
449.863264
0
VERTEX
5
4e7
100
AcDbEntity
8
0
100
AcDbVertex
100
AcDb2dVertex
62
3
10
380.237004
20
449.863264
0
VERTEX
5
4e8
100
AcDbEntity
8
0
100
AcDbVertex
100
AcDb2dVertex
62
3
10
377.189004
20
449.355264
0
VERTEX
5
4e9
100
AcDbEntity
8
0
100
AcDbVertex
100
AcDb2dVertex
62
3
10
377.189004
20
450.371264
0
VERTEX
5
4ea
100
AcDbEntity
8
0
100
AcDbVertex
100
AcDb2dVertex
62
3
10
380.237004
20
449.863264
0
VERTEX
5
4eb
100
AcDbEntity
8
0
100
AcDbVertex
100
AcDb2dVertex
62
3
10
377.189004
20
449.609264
0
VERTEX
5
4ec
100
AcDbEntity
8
0
100
AcDbVertex
100
AcDb2dVertex
62
3
10
377.189004
20
450.117264
0
VERTEX
5
4ed
100
AcDbEntity
8
0
100
AcDbVertex
100
AcDb2dVertex
62
3
10
380.237004
20
449.863264
0
SEQEND
5
4ee
100
AcDbEntity
8
0
0
TEXT
5
4ef
100
AcDbEntity
8
0
62
3
100
AcDbText
10
385.708360
20
450.563664
40
3.200000
41
0.825
1
12H8 
7
STANDARD
72
0
100
AcDbText
0
TEXT
5
4f0
100
AcDbEntity
8
0
62
3
100
AcDbText
10
386.089160
20
451.264064
40
1.600000
41
0.825
1
+0.027
7
STANDARD
72
0
100
AcDbText
0
TEXT
5
4f1
100
AcDbEntity
8
0
62
3
100
AcDbText
10
386.089160
20
450.024064
40
1.600000
41
0.825
1
0    
7
STANDARD
72
0
100
AcDbText
0
TEXT
5
4f2
100
AcDbEntity
8
0
62
3
100
AcDbText
10
386.089160
20
451.264064
40
3.200000
41
0.825
1
H8
7
STANDARD
72
0
100
AcDbText
0
LINE
5
4f3
100
AcDbEntity
8
1
100
AcDbLine
6
DOT2
62
3
10
399.836996
20
466.583614
11
447.733906
21
466.583614
0
LINE
5
4f4
100
AcDbEntity
8
1
100
AcDbLine
6
DOT2
62
3
10
433.736983
20
509.083597
11
447.733906
21
509.083597
0
POLYLINE
5
4f5
100
AcDbEntity
8
1
6
DOT2
62
3
100
AcDb2dPolyline
66
1
10
0.0
20
0.0
30
0.0
70
0
0
VERTEX
5
4f6
100
AcDbEntity
8
1
100
AcDbVertex
100
AcDb2dVertex
62
3
10
446.733906
20
487.833605
0
VERTEX
5
4f7
100
AcDbEntity
8
1
100
AcDbVertex
100
AcDb2dVertex
62
3
10
446.733906
20
466.583614
0
VERTEX
5
4f8
100
AcDbEntity
8
1
100
AcDbVertex
100
AcDb2dVertex
62
3
10
446.225906
20
469.631614
0
VERTEX
5
4f9
100
AcDbEntity
8
1
100
AcDbVertex
100
AcDb2dVertex
62
3
10
447.241906
20
469.631614
0
VERTEX
5
4fa
100
AcDbEntity
8
1
100
AcDbVertex
100
AcDb2dVertex
62
3
10
446.733906
20
466.583614
0
VERTEX
5
4fb
100
AcDbEntity
8
1
100
AcDbVertex
100
AcDb2dVertex
62
3
10
446.479906
20
469.631614
0
VERTEX
5
4fc
100
AcDbEntity
8
1
100
AcDbVertex
100
AcDb2dVertex
62
3
10
446.987906
20
469.631614
0
VERTEX
5
4fd
100
AcDbEntity
8
1
100
AcDbVertex
100
AcDb2dVertex
62
3
10
446.733906
20
466.583614
0
SEQEND
5
4fe
100
AcDbEntity
8
1
0
POLYLINE
5
4ff
100
AcDbEntity
8
1
6
DOT2
62
3
100
AcDb2dPolyline
66
1
10
0.0
20
0.0
30
0.0
70
0
0
VERTEX
5
500
100
AcDbEntity
8
1
100
AcDbVertex
100
AcDb2dVertex
62
3
10
446.733906
20
487.833605
0
VERTEX
5
501
100
AcDbEntity
8
1
100
AcDbVertex
100
AcDb2dVertex
62
3
10
446.733906
20
509.083597
0
VERTEX
5
502
100
AcDbEntity
8
1
100
AcDbVertex
100
AcDb2dVertex
62
3
10
447.241906
20
506.035597
0
VERTEX
5
503
100
AcDbEntity
8
1
100
AcDbVertex
100
AcDb2dVertex
62
3
10
446.225906
20
506.035597
0
VERTEX
5
504
100
AcDbEntity
8
1
100
AcDbVertex
100
AcDb2dVertex
62
3
10
446.733906
20
509.083597
0
VERTEX
5
505
100
AcDbEntity
8
1
100
AcDbVertex
100
AcDb2dVertex
62
3
10
446.987906
20
506.035597
0
VERTEX
5
506
100
AcDbEntity
8
1
100
AcDbVertex
100
AcDb2dVertex
62
3
10
446.479906
20
506.035597
0
VERTEX
5
507
100
AcDbEntity
8
1
100
AcDbVertex
100
AcDb2dVertex
62
3
10
446.733906
20
509.083597
0
SEQEND
5
508
100
AcDbEntity
8
1
0
TEXT
5
509
100
AcDbEntity
8
1
62
3
100
AcDbText
10
446.033506
20
480.772485
40
3.200000
41
0.825
1
(212.5)
50
90.000000
7
STANDARD
72
0
100
AcDbText
0
LINE
5
50a
100
AcDbEntity
8
1
100
AcDbLine
6
DOT2
62
3
10
365.332334
20
563.174255
11
342.337016
21
563.174255
0
LINE
5
50b
100
AcDbEntity
8
1
100
AcDbLine
6
DOT2
62
3
10
365.460595
20
543.174255
11
342.337016
21
543.174255
0
POLYLINE
5
50c
100
AcDbEntity
8
1
6
DOT2
62
3
100
AcDb2dPolyline
66
1
10
0.0
20
0.0
30
0.0
70
0
0
VERTEX
5
50d
100
AcDbEntity
8
1
100
AcDbVertex
100
AcDb2dVertex
62
3
10
343.337016
20
553.174255
0
VERTEX
5
50e
100
AcDbEntity
8
1
100
AcDbVertex
100
AcDb2dVertex
62
3
10
343.337016
20
543.174255
0
VERTEX
5
50f
100
AcDbEntity
8
1
100
AcDbVertex
100
AcDb2dVertex
62
3
10
342.829016
20
546.222255
0
VERTEX
5
510
100
AcDbEntity
8
1
100
AcDbVertex
100
AcDb2dVertex
62
3
10
343.845016
20
546.222255
0
VERTEX
5
511
100
AcDbEntity
8
1
100
AcDbVertex
100
AcDb2dVertex
62
3
10
343.337016
20
543.174255
0
VERTEX
5
512
100
AcDbEntity
8
1
100
AcDbVertex
100
AcDb2dVertex
62
3
10
343.083016
20
546.222255
0
VERTEX
5
513
100
AcDbEntity
8
1
100
AcDbVertex
100
AcDb2dVertex
62
3
10
343.591016
20
546.222255
0
VERTEX
5
514
100
AcDbEntity
8
1
100
AcDbVertex
100
AcDb2dVertex
62
3
10
343.337016
20
543.174255
0
SEQEND
5
515
100
AcDbEntity
8
1
0
POLYLINE
5
516
100
AcDbEntity
8
1
6
DOT2
62
3
100
AcDb2dPolyline
66
1
10
0.0
20
0.0
30
0.0
70
0
0
VERTEX
5
517
100
AcDbEntity
8
1
100
AcDbVertex
100
AcDb2dVertex
62
3
10
343.337016
20
553.174255
0
VERTEX
5
518
100
AcDbEntity
8
1
100
AcDbVertex
100
AcDb2dVertex
62
3
10
343.337016
20
563.174255
0
VERTEX
5
519
100
AcDbEntity
8
1
100
AcDbVertex
100
AcDb2dVertex
62
3
10
343.845016
20
560.126255
0
VERTEX
5
51a
100
AcDbEntity
8
1
100
AcDbVertex
100
AcDb2dVertex
62
3
10
342.829016
20
560.126255
0
VERTEX
5
51b
100
AcDbEntity
8
1
100
AcDbVertex
100
AcDb2dVertex
62
3
10
343.337016
20
563.174255
0
VERTEX
5
51c
100
AcDbEntity
8
1
100
AcDbVertex
100
AcDb2dVertex
62
3
10
343.591016
20
560.126255
0
VERTEX
5
51d
100
AcDbEntity
8
1
100
AcDbVertex
100
AcDb2dVertex
62
3
10
343.083016
20
560.126255
0
VERTEX
5
51e
100
AcDbEntity
8
1
100
AcDbVertex
100
AcDb2dVertex
62
3
10
343.337016
20
563.174255
0
SEQEND
5
51f
100
AcDbEntity
8
1
0
TEXT
5
520
100
AcDbEntity
8
1
62
3
100
AcDbText
10
342.636616
20
550.465135
40
3.200000
41
0.825
1
100
50
90.000000
7
STANDARD
72
0
100
AcDbText
0
LINE
5
521
100
AcDbEntity
8
1
100
AcDbLine
6
DOT2
62
3
10
285.852234
20
504.303609
11
285.852234
21
517.583609
0
LINE
5
522
100
AcDbEntity
8
1
100
AcDbLine
6
DOT2
62
3
10
305.852234
20
504.303609
11
305.852234
21
517.583609
0
POLYLINE
5
523
100
AcDbEntity
8
1
6
DOT2
62
3
100
AcDb2dPolyline
66
1
10
0.0
20
0.0
30
0.0
70
0
0
VERTEX
5
524
100
AcDbEntity
8
1
100
AcDbVertex
100
AcDb2dVertex
62
3
10
295.852234
20
516.583609
0
VERTEX
5
525
100
AcDbEntity
8
1
100
AcDbVertex
100
AcDb2dVertex
62
3
10
285.852234
20
516.583609
0
VERTEX
5
526
100
AcDbEntity
8
1
100
AcDbVertex
100
AcDb2dVertex
62
3
10
288.900234
20
517.091609
0
VERTEX
5
527
100
AcDbEntity
8
1
100
AcDbVertex
100
AcDb2dVertex
62
3
10
288.900234
20
516.075609
0
VERTEX
5
528
100
AcDbEntity
8
1
100
AcDbVertex
100
AcDb2dVertex
62
3
10
285.852234
20
516.583609
0
VERTEX
5
529
100
AcDbEntity
8
1
100
AcDbVertex
100
AcDb2dVertex
62
3
10
288.900234
20
516.837609
0
VERTEX
5
52a
100
AcDbEntity
8
1
100
AcDbVertex
100
AcDb2dVertex
62
3
10
288.900234
20
516.329609
0
VERTEX
5
52b
100
AcDbEntity
8
1
100
AcDbVertex
100
AcDb2dVertex
62
3
10
285.852234
20
516.583609
0
SEQEND
5
52c
100
AcDbEntity
8
1
0
POLYLINE
5
52d
100
AcDbEntity
8
1
6
DOT2
62
3
100
AcDb2dPolyline
66
1
10
0.0
20
0.0
30
0.0
70
0
0
VERTEX
5
52e
100
AcDbEntity
8
1
100
AcDbVertex
100
AcDb2dVertex
62
3
10
295.852234
20
516.583609
0
VERTEX
5
52f
100
AcDbEntity
8
1
100
AcDbVertex
100
AcDb2dVertex
62
3
10
305.852234
20
516.583609
0
VERTEX
5
530
100
AcDbEntity
8
1
100
AcDbVertex
100
AcDb2dVertex
62
3
10
302.804234
20
516.075609
0
VERTEX
5
531
100
AcDbEntity
8
1
100
AcDbVertex
100
AcDb2dVertex
62
3
10
302.804234
20
517.091609
0
VERTEX
5
532
100
AcDbEntity
8
1
100
AcDbVertex
100
AcDb2dVertex
62
3
10
305.852234
20
516.583609
0
VERTEX
5
533
100
AcDbEntity
8
1
100
AcDbVertex
100
AcDb2dVertex
62
3
10
302.804234
20
516.329609
0
VERTEX
5
534
100
AcDbEntity
8
1
100
AcDbVertex
100
AcDb2dVertex
62
3
10
302.804234
20
516.837609
0
VERTEX
5
535
100
AcDbEntity
8
1
100
AcDbVertex
100
AcDb2dVertex
62
3
10
305.852234
20
516.583609
0
SEQEND
5
536
100
AcDbEntity
8
1
0
TEXT
5
537
100
AcDbEntity
8
1
62
3
100
AcDbText
10
293.143114
20
517.284009
40
3.200000
41
0.825
1
100
7
STANDARD
72
0
100
AcDbText
0
LINE
5
538
100
AcDbEntity
8
1
100
AcDbLine
6
DOT2
62
3
10
352.897015
20
483.083607
11
339.837016
21
483.083607
0
LINE
5
539
100
AcDbEntity
8
1
100
AcDbLine
6
DOT2
62
3
10
352.897015
20
474.083611
11
339.837016
21
474.083611
0
POLYLINE
5
53a
100
AcDbEntity
8
1
6
DOT2
62
3
100
AcDb2dPolyline
66
1
10
0.0
20
0.0
30
0.0
70
0
0
VERTEX
5
53b
100
AcDbEntity
8
1
100
AcDbVertex
100
AcDb2dVertex
62
3
10
340.837016
20
469.035611
0
VERTEX
5
53c
100
AcDbEntity
8
1
100
AcDbVertex
100
AcDb2dVertex
62
3
10
340.837016
20
474.083611
0
VERTEX
5
53d
100
AcDbEntity
8
1
100
AcDbVertex
100
AcDb2dVertex
62
3
10
341.345016
20
471.035611
0
VERTEX
5
53e
100
AcDbEntity
8
1
100
AcDbVertex
100
AcDb2dVertex
62
3
10
340.329016
20
471.035611
0
VERTEX
5
53f
100
AcDbEntity
8
1
100
AcDbVertex
100
AcDb2dVertex
62
3
10
340.837016
20
474.083611
0
VERTEX
5
540
100
AcDbEntity
8
1
100
AcDbVertex
100
AcDb2dVertex
62
3
10
341.091016
20
471.035611
0
VERTEX
5
541
100
AcDbEntity
8
1
100
AcDbVertex
100
AcDb2dVertex
62
3
10
340.583016
20
471.035611
0
VERTEX
5
542
100
AcDbEntity
8
1
100
AcDbVertex
100
AcDb2dVertex
62
3
10
340.837016
20
474.083611
0
SEQEND
5
543
100
AcDbEntity
8
1
0
LINE
5
544
100
AcDbEntity
8
1
100
AcDbLine
6
DOT2
62
3
10
340.837016
20
474.083611
11
340.837016
21
483.083607
0
POLYLINE
5
545
100
AcDbEntity
8
1
6
DOT2
62
3
100
AcDb2dPolyline
66
1
10
0.0
20
0.0
30
0.0
70
0
0
VERTEX
5
546
100
AcDbEntity
8
1
100
AcDbVertex
100
AcDb2dVertex
62
3
10
340.837016
20
488.131607
0
VERTEX
5
547
100
AcDbEntity
8
1
100
AcDbVertex
100
AcDb2dVertex
62
3
10
340.837016
20
483.083607
0
VERTEX
5
548
100
AcDbEntity
8
1
100
AcDbVertex
100
AcDb2dVertex
62
3
10
340.329016
20
486.131607
0
VERTEX
5
549
100
AcDbEntity
8
1
100
AcDbVertex
100
AcDb2dVertex
62
3
10
341.345016
20
486.131607
0
VERTEX
5
54a
100
AcDbEntity
8
1
100
AcDbVertex
100
AcDb2dVertex
62
3
10
340.837016
20
483.083607
0
VERTEX
5
54b
100
AcDbEntity
8
1
100
AcDbVertex
100
AcDb2dVertex
62
3
10
340.583016
20
486.131607
0
VERTEX
5
54c
100
AcDbEntity
8
1
100
AcDbVertex
100
AcDb2dVertex
62
3
10
341.091016
20
486.131607
0
VERTEX
5
54d
100
AcDbEntity
8
1
100
AcDbVertex
100
AcDb2dVertex
62
3
10
340.837016
20
483.083607
0
SEQEND
5
54e
100
AcDbEntity
8
1
0
TEXT
5
54f
100
AcDbEntity
8
1
62
3
100
AcDbText
10
340.136616
20
475.874489
40
3.200000
41
0.825
1
%%c45
50
90.000000
7
STANDARD
72
0
100
AcDbText
0
LINE
5
550
100
AcDbEntity
8
1
100
AcDbLine
6
DOT2
62
3
10
351.037016
20
480.083609
11
346.337016
21
480.083609
0
LINE
5
551
100
AcDbEntity
8
1
100
AcDbLine
6
DOT2
62
3
10
351.037016
20
477.083609
11
346.337016
21
477.083609
0
POLYLINE
5
552
100
AcDbEntity
8
1
6
DOT2
62
3
100
AcDb2dPolyline
66
1
10
0.0
20
0.0
30
0.0
70
0
0
VERTEX
5
553
100
AcDbEntity
8
1
100
AcDbVertex
100
AcDb2dVertex
62
3
10
347.337016
20
452.551686
0
VERTEX
5
554
100
AcDbEntity
8
1
100
AcDbVertex
100
AcDb2dVertex
62
3
10
347.337016
20
477.083609
0
VERTEX
5
555
100
AcDbEntity
8
1
100
AcDbVertex
100
AcDb2dVertex
62
3
10
347.845016
20
474.035609
0
VERTEX
5
556
100
AcDbEntity
8
1
100
AcDbVertex
100
AcDb2dVertex
62
3
10
346.829016
20
474.035609
0
VERTEX
5
557
100
AcDbEntity
8
1
100
AcDbVertex
100
AcDb2dVertex
62
3
10
347.337016
20
477.083609
0
VERTEX
5
558
100
AcDbEntity
8
1
100
AcDbVertex
100
AcDb2dVertex
62
3
10
347.591016
20
474.035609
0
VERTEX
5
559
100
AcDbEntity
8
1
100
AcDbVertex
100
AcDb2dVertex
62
3
10
347.083016
20
474.035609
0
VERTEX
5
55a
100
AcDbEntity
8
1
100
AcDbVertex
100
AcDb2dVertex
62
3
10
347.337016
20
477.083609
0
SEQEND
5
55b
100
AcDbEntity
8
1
0
LINE
5
55c
100
AcDbEntity
8
1
100
AcDbLine
6
DOT2
62
3
10
347.337016
20
477.083609
11
347.337016
21
480.083609
0
POLYLINE
5
55d
100
AcDbEntity
8
1
6
DOT2
62
3
100
AcDb2dPolyline
66
1
10
0.0
20
0.0
30
0.0
70
0
0
VERTEX
5
55e
100
AcDbEntity
8
1
100
AcDbVertex
100
AcDb2dVertex
62
3
10
347.337016
20
485.131609
0
VERTEX
5
55f
100
AcDbEntity
8
1
100
AcDbVertex
100
AcDb2dVertex
62
3
10
347.337016
20
480.083609
0
VERTEX
5
560
100
AcDbEntity
8
1
100
AcDbVertex
100
AcDb2dVertex
62
3
10
346.829016
20
483.131609
0
VERTEX
5
561
100
AcDbEntity
8
1
100
AcDbVertex
100
AcDb2dVertex
62
3
10
347.845016
20
483.131609
0
VERTEX
5
562
100
AcDbEntity
8
1
100
AcDbVertex
100
AcDb2dVertex
62
3
10
347.337016
20
480.083609
0
VERTEX
5
563
100
AcDbEntity
8
1
100
AcDbVertex
100
AcDb2dVertex
62
3
10
347.083016
20
483.131609
0
VERTEX
5
564
100
AcDbEntity
8
1
100
AcDbVertex
100
AcDb2dVertex
62
3
10
347.591016
20
483.131609
0
VERTEX
5
565
100
AcDbEntity
8
1
100
AcDbVertex
100
AcDb2dVertex
62
3
10
347.337016
20
480.083609
0
SEQEND
5
566
100
AcDbEntity
8
1
0
TEXT
5
567
100
AcDbEntity
8
1
62
3
100
AcDbText
10
346.636616
20
455.291046
40
3.200000
41
0.825
1
%%c15H7 
50
90.000000
7
STANDARD
72
0
100
AcDbText
0
TEXT
5
568
100
AcDbEntity
8
1
62
3
100
AcDbText
10
345.451616
20
471.611046
40
1.600000
41
0.825
1
+0.018
50
90.000000
7
STANDARD
72
0
100
AcDbText
0
TEXT
5
569
100
AcDbEntity
8
1
62
3
100
AcDbText
10
346.691616
20
471.611046
40
1.600000
41
0.825
1
0    
50
90.000000
7
STANDARD
72
0
100
AcDbText
0
LINE
5
56a
100
AcDbEntity
8
1
100
AcDbLine
6
DOT2
62
3
10
350.837016
20
478.583609
11
350.837016
21
448.863264
0
LINE
5
56b
100
AcDbEntity
8
1
100
AcDbLine
6
DOT2
62
3
10
358.837013
20
478.583609
11
358.837013
21
448.863264
0
POLYLINE
5
56c
100
AcDbEntity
8
1
6
DOT2
62
3
100
AcDb2dPolyline
66
1
10
0.0
20
0.0
30
0.0
70
0
0
VERTEX
5
56d
100
AcDbEntity
8
1
100
AcDbVertex
100
AcDb2dVertex
62
3
10
345.789016
20
449.863264
0
VERTEX
5
56e
100
AcDbEntity
8
1
100
AcDbVertex
100
AcDb2dVertex
62
3
10
350.837016
20
449.863264
0
VERTEX
5
56f
100
AcDbEntity
8
1
100
AcDbVertex
100
AcDb2dVertex
62
3
10
347.789016
20
449.355264
0
VERTEX
5
570
100
AcDbEntity
8
1
100
AcDbVertex
100
AcDb2dVertex
62
3
10
347.789016
20
450.371264
0
VERTEX
5
571
100
AcDbEntity
8
1
100
AcDbVertex
100
AcDb2dVertex
62
3
10
350.837016
20
449.863264
0
VERTEX
5
572
100
AcDbEntity
8
1
100
AcDbVertex
100
AcDb2dVertex
62
3
10
347.789016
20
449.609264
0
VERTEX
5
573
100
AcDbEntity
8
1
100
AcDbVertex
100
AcDb2dVertex
62
3
10
347.789016
20
450.117264
0
VERTEX
5
574
100
AcDbEntity
8
1
100
AcDbVertex
100
AcDb2dVertex
62
3
10
350.837016
20
449.863264
0
SEQEND
5
575
100
AcDbEntity
8
1
0
LINE
5
576
100
AcDbEntity
8
1
100
AcDbLine
6
DOT2
62
3
10
350.837016
20
449.863264
11
358.837013
21
449.863264
0
POLYLINE
5
577
100
AcDbEntity
8
1
6
DOT2
62
3
100
AcDb2dPolyline
66
1
10
0.0
20
0.0
30
0.0
70
0
0
VERTEX
5
578
100
AcDbEntity
8
1
100
AcDbVertex
100
AcDb2dVertex
62
3
10
363.885013
20
449.863264
0
VERTEX
5
579
100
AcDbEntity
8
1
100
AcDbVertex
100
AcDb2dVertex
62
3
10
358.837013
20
449.863264
0
VERTEX
5
57a
100
AcDbEntity
8
1
100
AcDbVertex
100
AcDb2dVertex
62
3
10
361.885013
20
450.371264
0
VERTEX
5
57b
100
AcDbEntity
8
1
100
AcDbVertex
100
AcDb2dVertex
62
3
10
361.885013
20
449.355264
0
VERTEX
5
57c
100
AcDbEntity
8
1
100
AcDbVertex
100
AcDb2dVertex
62
3
10
358.837013
20
449.863264
0
VERTEX
5
57d
100
AcDbEntity
8
1
100
AcDbVertex
100
AcDb2dVertex
62
3
10
361.885013
20
450.117264
0
VERTEX
5
57e
100
AcDbEntity
8
1
100
AcDbVertex
100
AcDb2dVertex
62
3
10
361.885013
20
449.609264
0
VERTEX
5
57f
100
AcDbEntity
8
1
100
AcDbVertex
100
AcDb2dVertex
62
3
10
358.837013
20
449.863264
0
SEQEND
5
580
100
AcDbEntity
8
1
0
TEXT
5
581
100
AcDbEntity
8
1
62
3
100
AcDbText
10
353.207013
20
450.563664
40
3.200000
41
0.825
1
40
7
STANDARD
72
0
100
AcDbText
0
LINE
5
582
100
AcDbEntity
8
1
100
AcDbLine
6
DOT2
62
3
10
350.837016
20
478.583609
11
350.837016
21
426.663264
0
LINE
5
583
100
AcDbEntity
8
1
100
AcDbLine
6
DOT2
62
3
10
360.837012
20
466.583614
11
360.837012
21
426.663264
0
POLYLINE
5
584
100
AcDbEntity
8
1
6
DOT2
62
3
100
AcDb2dPolyline
66
1
10
0.0
20
0.0
30
0.0
70
0
0
VERTEX
5
585
100
AcDbEntity
8
1
100
AcDbVertex
100
AcDb2dVertex
62
3
10
345.789016
20
427.663264
0
VERTEX
5
586
100
AcDbEntity
8
1
100
AcDbVertex
100
AcDb2dVertex
62
3
10
350.837016
20
427.663264
0
VERTEX
5
587
100
AcDbEntity
8
1
100
AcDbVertex
100
AcDb2dVertex
62
3
10
347.789016
20
427.155264
0
VERTEX
5
588
100
AcDbEntity
8
1
100
AcDbVertex
100
AcDb2dVertex
62
3
10
347.789016
20
428.171264
0
VERTEX
5
589
100
AcDbEntity
8
1
100
AcDbVertex
100
AcDb2dVertex
62
3
10
350.837016
20
427.663264
0
VERTEX
5
58a
100
AcDbEntity
8
1
100
AcDbVertex
100
AcDb2dVertex
62
3
10
347.789016
20
427.409264
0
VERTEX
5
58b
100
AcDbEntity
8
1
100
AcDbVertex
100
AcDb2dVertex
62
3
10
347.789016
20
427.917264
0
VERTEX
5
58c
100
AcDbEntity
8
1
100
AcDbVertex
100
AcDb2dVertex
62
3
10
350.837016
20
427.663264
0
SEQEND
5
58d
100
AcDbEntity
8
1
0
LINE
5
58e
100
AcDbEntity
8
1
100
AcDbLine
6
DOT2
62
3
10
350.837016
20
427.663264
11
360.837012
21
427.663264
0
POLYLINE
5
58f
100
AcDbEntity
8
1
6
DOT2
62
3
100
AcDb2dPolyline
66
1
10
0.0
20
0.0
30
0.0
70
0
0
VERTEX
5
590
100
AcDbEntity
8
1
100
AcDbVertex
100
AcDb2dVertex
62
3
10
365.885012
20
427.663264
0
VERTEX
5
591
100
AcDbEntity
8
1
100
AcDbVertex
100
AcDb2dVertex
62
3
10
360.837012
20
427.663264
0
VERTEX
5
592
100
AcDbEntity
8
1
100
AcDbVertex
100
AcDb2dVertex
62
3
10
363.885012
20
428.171264
0
VERTEX
5
593
100
AcDbEntity
8
1
100
AcDbVertex
100
AcDb2dVertex
62
3
10
363.885012
20
427.155264
0
VERTEX
5
594
100
AcDbEntity
8
1
100
AcDbVertex
100
AcDb2dVertex
62
3
10
360.837012
20
427.663264
0
VERTEX
5
595
100
AcDbEntity
8
1
100
AcDbVertex
100
AcDb2dVertex
62
3
10
363.885012
20
427.917264
0
VERTEX
5
596
100
AcDbEntity
8
1
100
AcDbVertex
100
AcDb2dVertex
62
3
10
363.885012
20
427.409264
0
VERTEX
5
597
100
AcDbEntity
8
1
100
AcDbVertex
100
AcDb2dVertex
62
3
10
360.837012
20
427.663264
0
SEQEND
5
598
100
AcDbEntity
8
1
0
TEXT
5
599
100
AcDbEntity
8
1
62
3
100
AcDbText
10
354.944146
20
428.363664
40
3.200000
41
0.825
1
50
7
STANDARD
72
0
100
AcDbText
0
LINE
5
59a
100
AcDbEntity
8
1
100
AcDbLine
6
DOT2
62
3
10
307.577150
20
478.583609
11
316.152234
21
478.583609
0
LINE
5
59b
100
AcDbEntity
8
1
100
AcDbLine
6
DOT2
62
3
10
307.652234
20
466.583609
11
316.152234
21
466.583609
0
POLYLINE
5
59c
100
AcDbEntity
8
1
6
DOT2
62
3
100
AcDb2dPolyline
66
1
10
0.0
20
0.0
30
0.0
70
0
0
VERTEX
5
59d
100
AcDbEntity
8
1
100
AcDbVertex
100
AcDb2dVertex
62
3
10
315.152234
20
472.919812
0
VERTEX
5
59e
100
AcDbEntity
8
1
100
AcDbVertex
100
AcDb2dVertex
62
3
10
315.152234
20
466.583609
0
VERTEX
5
59f
100
AcDbEntity
8
1
100
AcDbVertex
100
AcDb2dVertex
62
3
10
314.644234
20
469.631609
0
VERTEX
5
5a0
100
AcDbEntity
8
1
100
AcDbVertex
100
AcDb2dVertex
62
3
10
315.660234
20
469.631609
0
VERTEX
5
5a1
100
AcDbEntity
8
1
100
AcDbVertex
100
AcDb2dVertex
62
3
10
315.152234
20
466.583609
0
VERTEX
5
5a2
100
AcDbEntity
8
1
100
AcDbVertex
100
AcDb2dVertex
62
3
10
314.898234
20
469.631609
0
VERTEX
5
5a3
100
AcDbEntity
8
1
100
AcDbVertex
100
AcDb2dVertex
62
3
10
315.406234
20
469.631609
0
VERTEX
5
5a4
100
AcDbEntity
8
1
100
AcDbVertex
100
AcDb2dVertex
62
3
10
315.152234
20
466.583609
0
SEQEND
5
5a5
100
AcDbEntity
8
1
0
POLYLINE
5
5a6
100
AcDbEntity
8
1
6
DOT2
62
3
100
AcDb2dPolyline
66
1
10
0.0
20
0.0
30
0.0
70
0
0
VERTEX
5
5a7
100
AcDbEntity
8
1
100
AcDbVertex
100
AcDb2dVertex
62
3
10
315.152234
20
472.919812
0
VERTEX
5
5a8
100
AcDbEntity
8
1
100
AcDbVertex
100
AcDb2dVertex
62
3
10
315.152234
20
478.583609
0
VERTEX
5
5a9
100
AcDbEntity
8
1
100
AcDbVertex
100
AcDb2dVertex
62
3
10
315.660234
20
475.535609
0
VERTEX
5
5aa
100
AcDbEntity
8
1
100
AcDbVertex
100
AcDb2dVertex
62
3
10
314.644234
20
475.535609
0
VERTEX
5
5ab
100
AcDbEntity
8
1
100
AcDbVertex
100
AcDb2dVertex
62
3
10
315.152234
20
478.583609
0
VERTEX
5
5ac
100
AcDbEntity
8
1
100
AcDbVertex
100
AcDb2dVertex
62
3
10
315.406234
20
475.535609
0
VERTEX
5
5ad
100
AcDbEntity
8
1
100
AcDbVertex
100
AcDb2dVertex
62
3
10
314.898234
20
475.535609
0
VERTEX
5
5ae
100
AcDbEntity
8
1
100
AcDbVertex
100
AcDb2dVertex
62
3
10
315.152234
20
478.583609
0
SEQEND
5
5af
100
AcDbEntity
8
1
0
TEXT
5
5b0
100
AcDbEntity
8
1
62
3
100
AcDbText
10
314.451834
20
471.298692
40
3.200000
41
0.825
1
60
50
90.000000
7
STANDARD
72
0
100
AcDbText
0
LINE
5
5b1
100
AcDbEntity
8
1
100
AcDbLine
6
DOT2
62
3
10
284.052234
20
466.583609
11
284.052234
21
448.583609
0
LINE
5
5b2
100
AcDbEntity
8
1
100
AcDbLine
6
DOT2
62
3
10
307.652234
20
466.583609
11
307.652234
21
448.583609
0
POLYLINE
5
5b3
100
AcDbEntity
8
1
6
DOT2
62
3
100
AcDb2dPolyline
66
1
10
0.0
20
0.0
30
0.0
70
0
0
VERTEX
5
5b4
100
AcDbEntity
8
1
100
AcDbVertex
100
AcDb2dVertex
62
3
10
295.852234
20
449.583609
0
VERTEX
5
5b5
100
AcDbEntity
8
1
100
AcDbVertex
100
AcDb2dVertex
62
3
10
284.052234
20
449.583609
0
VERTEX
5
5b6
100
AcDbEntity
8
1
100
AcDbVertex
100
AcDb2dVertex
62
3
10
287.100234
20
450.091609
0
VERTEX
5
5b7
100
AcDbEntity
8
1
100
AcDbVertex
100
AcDb2dVertex
62
3
10
287.100234
20
449.075609
0
VERTEX
5
5b8
100
AcDbEntity
8
1
100
AcDbVertex
100
AcDb2dVertex
62
3
10
284.052234
20
449.583609
0
VERTEX
5
5b9
100
AcDbEntity
8
1
100
AcDbVertex
100
AcDb2dVertex
62
3
10
287.100234
20
449.837609
0
VERTEX
5
5ba
100
AcDbEntity
8
1
100
AcDbVertex
100
AcDb2dVertex
62
3
10
287.100234
20
449.329609
0
VERTEX
5
5bb
100
AcDbEntity
8
1
100
AcDbVertex
100
AcDb2dVertex
62
3
10
284.052234
20
449.583609
0
SEQEND
5
5bc
100
AcDbEntity
8
1
0
POLYLINE
5
5bd
100
AcDbEntity
8
1
6
DOT2
62
3
100
AcDb2dPolyline
66
1
10
0.0
20
0.0
30
0.0
70
0
0
VERTEX
5
5be
100
AcDbEntity
8
1
100
AcDbVertex
100
AcDb2dVertex
62
3
10
295.852234
20
449.583609
0
VERTEX
5
5bf
100
AcDbEntity
8
1
100
AcDbVertex
100
AcDb2dVertex
62
3
10
307.652234
20
449.583609
0
VERTEX
5
5c0
100
AcDbEntity
8
1
100
AcDbVertex
100
AcDb2dVertex
62
3
10
304.604234
20
449.075609
0
VERTEX
5
5c1
100
AcDbEntity
8
1
100
AcDbVertex
100
AcDb2dVertex
62
3
10
304.604234
20
450.091609
0
VERTEX
5
5c2
100
AcDbEntity
8
1
100
AcDbVertex
100
AcDb2dVertex
62
3
10
307.652234
20
449.583609
0
VERTEX
5
5c3
100
AcDbEntity
8
1
100
AcDbVertex
100
AcDb2dVertex
62
3
10
304.604234
20
449.329609
0
VERTEX
5
5c4
100
AcDbEntity
8
1
100
AcDbVertex
100
AcDb2dVertex
62
3
10
304.604234
20
449.837609
0
VERTEX
5
5c5
100
AcDbEntity
8
1
100
AcDbVertex
100
AcDb2dVertex
62
3
10
307.652234
20
449.583609
0
SEQEND
5
5c6
100
AcDbEntity
8
1
0
TEXT
5
5c7
100
AcDbEntity
8
1
62
3
100
AcDbText
10
293.143114
20
450.284009
40
3.200000
41
0.825
1
118
7
STANDARD
72
0
100
AcDbText
0
LINE
5
5c8
100
AcDbEntity
8
1
100
AcDbLine
6
DOT2
62
3
10
294.652234
20
466.583609
11
294.652234
21
456.083609
0
LINE
5
5c9
100
AcDbEntity
8
1
100
AcDbLine
6
DOT2
62
3
10
297.052234
20
466.583609
11
297.052234
21
456.083609
0
POLYLINE
5
5ca
100
AcDbEntity
8
1
6
DOT2
62
3
100
AcDb2dPolyline
66
1
10
0.0
20
0.0
30
0.0
70
0
0
VERTEX
5
5cb
100
AcDbEntity
8
1
100
AcDbVertex
100
AcDb2dVertex
62
3
10
316.392919
20
457.083609
0
VERTEX
5
5cc
100
AcDbEntity
8
1
100
AcDbVertex
100
AcDb2dVertex
62
3
10
297.052234
20
457.083609
0
VERTEX
5
5cd
100
AcDbEntity
8
1
100
AcDbVertex
100
AcDb2dVertex
62
3
10
300.100234
20
457.591609
0
VERTEX
5
5ce
100
AcDbEntity
8
1
100
AcDbVertex
100
AcDb2dVertex
62
3
10
300.100234
20
456.575609
0
VERTEX
5
5cf
100
AcDbEntity
8
1
100
AcDbVertex
100
AcDb2dVertex
62
3
10
297.052234
20
457.083609
0
VERTEX
5
5d0
100
AcDbEntity
8
1
100
AcDbVertex
100
AcDb2dVertex
62
3
10
300.100234
20
457.337609
0
VERTEX
5
5d1
100
AcDbEntity
8
1
100
AcDbVertex
100
AcDb2dVertex
62
3
10
300.100234
20
456.829609
0
VERTEX
5
5d2
100
AcDbEntity
8
1
100
AcDbVertex
100
AcDb2dVertex
62
3
10
297.052234
20
457.083609
0
SEQEND
5
5d3
100
AcDbEntity
8
1
0
LINE
5
5d4
100
AcDbEntity
8
1
100
AcDbLine
6
DOT2
62
3
10
297.052234
20
457.083609
11
294.652234
21
457.083609
0
POLYLINE
5
5d5
100
AcDbEntity
8
1
6
DOT2
62
3
100
AcDb2dPolyline
66
1
10
0.0
20
0.0
30
0.0
70
0
0
VERTEX
5
5d6
100
AcDbEntity
8
1
100
AcDbVertex
100
AcDb2dVertex
62
3
10
289.604234
20
457.083609
0
VERTEX
5
5d7
100
AcDbEntity
8
1
100
AcDbVertex
100
AcDb2dVertex
62
3
10
294.652234
20
457.083609
0
VERTEX
5
5d8
100
AcDbEntity
8
1
100
AcDbVertex
100
AcDb2dVertex
62
3
10
291.604234
20
456.575609
0
VERTEX
5
5d9
100
AcDbEntity
8
1
100
AcDbVertex
100
AcDb2dVertex
62
3
10
291.604234
20
457.591609
0
VERTEX
5
5da
100
AcDbEntity
8
1
100
AcDbVertex
100
AcDb2dVertex
62
3
10
294.652234
20
457.083609
0
VERTEX
5
5db
100
AcDbEntity
8
1
100
AcDbVertex
100
AcDb2dVertex
62
3
10
291.604234
20
456.829609
0
VERTEX
5
5dc
100
AcDbEntity
8
1
100
AcDbVertex
100
AcDb2dVertex
62
3
10
291.604234
20
457.337609
0
VERTEX
5
5dd
100
AcDbEntity
8
1
100
AcDbVertex
100
AcDb2dVertex
62
3
10
294.652234
20
457.083609
0
SEQEND
5
5de
100
AcDbEntity
8
1
0
TEXT
5
5df
100
AcDbEntity
8
1
62
3
100
AcDbText
10
299.273719
20
457.784009
40
3.200000
41
0.825
1
12H8 
7
STANDARD
72
0
100
AcDbText
0
TEXT
5
5e0
100
AcDbEntity
8
1
62
3
100
AcDbText
10
299.654519
20
458.484409
40
1.600000
41
0.825
1
+0.027
7
STANDARD
72
0
100
AcDbText
0
TEXT
5
5e1
100
AcDbEntity
8
1
62
3
100
AcDbText
10
299.654519
20
457.244409
40
1.600000
41
0.825
1
0    
7
STANDARD
72
0
100
AcDbText
0
LINE
5
5e2
100
AcDbEntity
8
1
100
AcDbLine
6
DOT2
62
3
10
350.837016
20
484.083609
11
350.837016
21
501.083609
0
LINE
5
5e3
100
AcDbEntity
8
1
100
AcDbLine
6
DOT2
62
3
10
354.837013
20
483.757711
11
354.837013
21
501.083609
0
POLYLINE
5
5e4
100
AcDbEntity
8
1
6
DOT2
62
3
100
AcDb2dPolyline
66
1
10
0.0
20
0.0
30
0.0
70
0
0
VERTEX
5
5e5
100
AcDbEntity
8
1
100
AcDbVertex
100
AcDb2dVertex
62
3
10
345.789016
20
500.083609
0
VERTEX
5
5e6
100
AcDbEntity
8
1
100
AcDbVertex
100
AcDb2dVertex
62
3
10
350.837016
20
500.083609
0
VERTEX
5
5e7
100
AcDbEntity
8
1
100
AcDbVertex
100
AcDb2dVertex
62
3
10
347.789016
20
499.575609
0
VERTEX
5
5e8
100
AcDbEntity
8
1
100
AcDbVertex
100
AcDb2dVertex
62
3
10
347.789016
20
500.591609
0
VERTEX
5
5e9
100
AcDbEntity
8
1
100
AcDbVertex
100
AcDb2dVertex
62
3
10
350.837016
20
500.083609
0
VERTEX
5
5ea
100
AcDbEntity
8
1
100
AcDbVertex
100
AcDb2dVertex
62
3
10
347.789016
20
499.829609
0
VERTEX
5
5eb
100
AcDbEntity
8
1
100
AcDbVertex
100
AcDb2dVertex
62
3
10
347.789016
20
500.337609
0
VERTEX
5
5ec
100
AcDbEntity
8
1
100
AcDbVertex
100
AcDb2dVertex
62
3
10
350.837016
20
500.083609
0
SEQEND
5
5ed
100
AcDbEntity
8
1
0
LINE
5
5ee
100
AcDbEntity
8
1
100
AcDbLine
6
DOT2
62
3
10
350.837016
20
500.083609
11
354.837013
21
500.083609
0
POLYLINE
5
5ef
100
AcDbEntity
8
1
6
DOT2
62
3
100
AcDb2dPolyline
66
1
10
0.0
20
0.0
30
0.0
70
0
0
VERTEX
5
5f0
100
AcDbEntity
8
1
100
AcDbVertex
100
AcDb2dVertex
62
3
10
359.885013
20
500.083609
0
VERTEX
5
5f1
100
AcDbEntity
8
1
100
AcDbVertex
100
AcDb2dVertex
62
3
10
354.837013
20
500.083609
0
VERTEX
5
5f2
100
AcDbEntity
8
1
100
AcDbVertex
100
AcDb2dVertex
62
3
10
357.885013
20
500.591609
0
VERTEX
5
5f3
100
AcDbEntity
8
1
100
AcDbVertex
100
AcDb2dVertex
62
3
10
357.885013
20
499.575609
0
VERTEX
5
5f4
100
AcDbEntity
8
1
100
AcDbVertex
100
AcDb2dVertex
62
3
10
354.837013
20
500.083609
0
VERTEX
5
5f5
100
AcDbEntity
8
1
100
AcDbVertex
100
AcDb2dVertex
62
3
10
357.885013
20
500.337609
0
VERTEX
5
5f6
100
AcDbEntity
8
1
100
AcDbVertex
100
AcDb2dVertex
62
3
10
357.885013
20
499.829609
0
VERTEX
5
5f7
100
AcDbEntity
8
1
100
AcDbVertex
100
AcDb2dVertex
62
3
10
354.837013
20
500.083609
0
SEQEND
5
5f8
100
AcDbEntity
8
1
0
TEXT
5
5f9
100
AcDbEntity
8
1
62
3
100
AcDbText
10
351.215894
20
500.784009
40
3.200000
41
0.825
1
20
7
STANDARD
72
0
100
AcDbText
0
LINE
5
5fa
100
AcDbEntity
8
1
100
AcDbLine
6
DOT2
62
3
10
334.837016
20
480.683608
11
334.837016
21
508.162984
0
LINE
5
5fb
100
AcDbEntity
8
1
100
AcDbLine
6
DOT2
62
3
10
350.837016
20
484.083609
11
350.837016
21
508.162984
0
POLYLINE
5
5fc
100
AcDbEntity
8
1
6
DOT2
62
3
100
AcDb2dPolyline
66
1
10
0.0
20
0.0
30
0.0
70
0
0
VERTEX
5
5fd
100
AcDbEntity
8
1
100
AcDbVertex
100
AcDb2dVertex
62
3
10
342.633958
20
507.162984
0
VERTEX
5
5fe
100
AcDbEntity
8
1
100
AcDbVertex
100
AcDb2dVertex
62
3
10
334.837016
20
507.162984
0
VERTEX
5
5ff
100
AcDbEntity
8
1
100
AcDbVertex
100
AcDb2dVertex
62
3
10
337.885016
20
507.670984
0
VERTEX
5
600
100
AcDbEntity
8
1
100
AcDbVertex
100
AcDb2dVertex
62
3
10
337.885016
20
506.654984
0
VERTEX
5
601
100
AcDbEntity
8
1
100
AcDbVertex
100
AcDb2dVertex
62
3
10
334.837016
20
507.162984
0
VERTEX
5
602
100
AcDbEntity
8
1
100
AcDbVertex
100
AcDb2dVertex
62
3
10
337.885016
20
507.416984
0
VERTEX
5
603
100
AcDbEntity
8
1
100
AcDbVertex
100
AcDb2dVertex
62
3
10
337.885016
20
506.908984
0
VERTEX
5
604
100
AcDbEntity
8
1
100
AcDbVertex
100
AcDb2dVertex
62
3
10
334.837016
20
507.162984
0
SEQEND
5
605
100
AcDbEntity
8
1
0
POLYLINE
5
606
100
AcDbEntity
8
1
6
DOT2
62
3
100
AcDb2dPolyline
66
1
10
0.0
20
0.0
30
0.0
70
0
0
VERTEX
5
607
100
AcDbEntity
8
1
100
AcDbVertex
100
AcDb2dVertex
62
3
10
342.633958
20
507.162984
0
VERTEX
5
608
100
AcDbEntity
8
1
100
AcDbVertex
100
AcDb2dVertex
62
3
10
350.837016
20
507.162984
0
VERTEX
5
609
100
AcDbEntity
8
1
100
AcDbVertex
100
AcDb2dVertex
62
3
10
347.789016
20
506.654984
0
VERTEX
5
60a
100
AcDbEntity
8
1
100
AcDbVertex
100
AcDb2dVertex
62
3
10
347.789016
20
507.670984
0
VERTEX
5
60b
100
AcDbEntity
8
1
100
AcDbVertex
100
AcDb2dVertex
62
3
10
350.837016
20
507.162984
0
VERTEX
5
60c
100
AcDbEntity
8
1
100
AcDbVertex
100
AcDb2dVertex
62
3
10
347.789016
20
506.908984
0
VERTEX
5
60d
100
AcDbEntity
8
1
100
AcDbVertex
100
AcDb2dVertex
62
3
10
347.789016
20
507.416984
0
VERTEX
5
60e
100
AcDbEntity
8
1
100
AcDbVertex
100
AcDb2dVertex
62
3
10
350.837016
20
507.162984
0
SEQEND
5
60f
100
AcDbEntity
8
1
0
TEXT
5
610
100
AcDbEntity
8
1
62
3
100
AcDbText
10
341.012838
20
507.863384
40
3.200000
41
0.825
1
80
7
STANDARD
72
0
100
AcDbText
0
LINE
5
611
100
AcDbEntity
8
1
100
AcDbLine
6
DOT2
62
3
10
307.652234
20
466.583609
11
323.652234
21
466.583609
0
LINE
5
612
100
AcDbEntity
8
1
100
AcDbLine
6
DOT2
62
3
10
295.852234
20
509.083609
11
323.652234
21
509.083609
0
POLYLINE
5
613
100
AcDbEntity
8
1
6
DOT2
62
3
100
AcDb2dPolyline
66
1
10
0.0
20
0.0
30
0.0
70
0
0
VERTEX
5
614
100
AcDbEntity
8
1
100
AcDbVertex
100
AcDb2dVertex
62
3
10
322.652234
20
489.029931
0
VERTEX
5
615
100
AcDbEntity
8
1
100
AcDbVertex
100
AcDb2dVertex
62
3
10
322.652234
20
466.583609
0
VERTEX
5
616
100
AcDbEntity
8
1
100
AcDbVertex
100
AcDb2dVertex
62
3
10
322.144234
20
469.631609
0
VERTEX
5
617
100
AcDbEntity
8
1
100
AcDbVertex
100
AcDb2dVertex
62
3
10
323.160234
20
469.631609
0
VERTEX
5
618
100
AcDbEntity
8
1
100
AcDbVertex
100
AcDb2dVertex
62
3
10
322.652234
20
466.583609
0
VERTEX
5
619
100
AcDbEntity
8
1
100
AcDbVertex
100
AcDb2dVertex
62
3
10
322.398234
20
469.631609
0
VERTEX
5
61a
100
AcDbEntity
8
1
100
AcDbVertex
100
AcDb2dVertex
62
3
10
322.906234
20
469.631609
0
VERTEX
5
61b
100
AcDbEntity
8
1
100
AcDbVertex
100
AcDb2dVertex
62
3
10
322.652234
20
466.583609
0
SEQEND
5
61c
100
AcDbEntity
8
1
0
POLYLINE
5
61d
100
AcDbEntity
8
1
6
DOT2
62
3
100
AcDb2dPolyline
66
1
10
0.0
20
0.0
30
0.0
70
0
0
VERTEX
5
61e
100
AcDbEntity
8
1
100
AcDbVertex
100
AcDb2dVertex
62
3
10
322.652234
20
489.029931
0
VERTEX
5
61f
100
AcDbEntity
8
1
100
AcDbVertex
100
AcDb2dVertex
62
3
10
322.652234
20
509.083609
0
VERTEX
5
620
100
AcDbEntity
8
1
100
AcDbVertex
100
AcDb2dVertex
62
3
10
323.160234
20
506.035609
0
VERTEX
5
621
100
AcDbEntity
8
1
100
AcDbVertex
100
AcDb2dVertex
62
3
10
322.144234
20
506.035609
0
VERTEX
5
622
100
AcDbEntity
8
1
100
AcDbVertex
100
AcDb2dVertex
62
3
10
322.652234
20
509.083609
0
VERTEX
5
623
100
AcDbEntity
8
1
100
AcDbVertex
100
AcDb2dVertex
62
3
10
322.906234
20
506.035609
0
VERTEX
5
624
100
AcDbEntity
8
1
100
AcDbVertex
100
AcDb2dVertex
62
3
10
322.398234
20
506.035609
0
VERTEX
5
625
100
AcDbEntity
8
1
100
AcDbVertex
100
AcDb2dVertex
62
3
10
322.652234
20
509.083609
0
SEQEND
5
626
100
AcDbEntity
8
1
0
TEXT
5
627
100
AcDbEntity
8
1
62
3
100
AcDbText
10
321.951834
20
484.144811
40
3.200000
41
0.825
1
212.5
50
90.000000
7
STANDARD
72
0
100
AcDbText
0
LINE
5
628
100
AcDbEntity
8
1
100
AcDbLine
6
DOT2
62
3
10
350.837016
20
478.583609
11
350.837016
21
522.083595
0
LINE
5
629
100
AcDbEntity
8
1
100
AcDbLine
6
DOT2
62
3
10
433.836983
20
508.983597
11
433.836983
21
522.083595
0
POLYLINE
5
62a
100
AcDbEntity
8
1
6
DOT2
62
3
100
AcDb2dPolyline
66
1
10
0.0
20
0.0
30
0.0
70
0
0
VERTEX
5
62b
100
AcDbEntity
8
1
100
AcDbVertex
100
AcDb2dVertex
62
3
10
392.336999
20
521.083595
0
VERTEX
5
62c
100
AcDbEntity
8
1
100
AcDbVertex
100
AcDb2dVertex
62
3
10
350.837016
20
521.083595
0
VERTEX
5
62d
100
AcDbEntity
8
1
100
AcDbVertex
100
AcDb2dVertex
62
3
10
353.885016
20
521.591595
0
VERTEX
5
62e
100
AcDbEntity
8
1
100
AcDbVertex
100
AcDb2dVertex
62
3
10
353.885016
20
520.575595
0
VERTEX
5
62f
100
AcDbEntity
8
1
100
AcDbVertex
100
AcDb2dVertex
62
3
10
350.837016
20
521.083595
0
VERTEX
5
630
100
AcDbEntity
8
1
100
AcDbVertex
100
AcDb2dVertex
62
3
10
353.885016
20
521.337595
0
VERTEX
5
631
100
AcDbEntity
8
1
100
AcDbVertex
100
AcDb2dVertex
62
3
10
353.885016
20
520.829595
0
VERTEX
5
632
100
AcDbEntity
8
1
100
AcDbVertex
100
AcDb2dVertex
62
3
10
350.837016
20
521.083595
0
SEQEND
5
633
100
AcDbEntity
8
1
0
POLYLINE
5
634
100
AcDbEntity
8
1
6
DOT2
62
3
100
AcDb2dPolyline
66
1
10
0.0
20
0.0
30
0.0
70
0
0
VERTEX
5
635
100
AcDbEntity
8
1
100
AcDbVertex
100
AcDb2dVertex
62
3
10
392.336999
20
521.083595
0
VERTEX
5
636
100
AcDbEntity
8
1
100
AcDbVertex
100
AcDb2dVertex
62
3
10
433.836983
20
521.083595
0
VERTEX
5
637
100
AcDbEntity
8
1
100
AcDbVertex
100
AcDb2dVertex
62
3
10
430.788983
20
520.575595
0
VERTEX
5
638
100
AcDbEntity
8
1
100
AcDbVertex
100
AcDb2dVertex
62
3
10
430.788983
20
521.591595
0
VERTEX
5
639
100
AcDbEntity
8
1
100
AcDbVertex
100
AcDb2dVertex
62
3
10
433.836983
20
521.083595
0
VERTEX
5
63a
100
AcDbEntity
8
1
100
AcDbVertex
100
AcDb2dVertex
62
3
10
430.788983
20
520.829595
0
VERTEX
5
63b
100
AcDbEntity
8
1
100
AcDbVertex
100
AcDb2dVertex
62
3
10
430.788983
20
521.337595
0
VERTEX
5
63c
100
AcDbEntity
8
1
100
AcDbVertex
100
AcDb2dVertex
62
3
10
433.836983
20
521.083595
0
SEQEND
5
63d
100
AcDbEntity
8
1
0
TEXT
5
63e
100
AcDbEntity
8
1
62
3
100
AcDbText
10
389.627879
20
521.783995
40
3.200000
41
0.825
1
415
7
STANDARD
72
0
100
AcDbText
0
LINE
5
63f
100
AcDbEntity
8
1
100
AcDbLine
6
DOT2
62
3
10
365.637016
20
541.574255
11
365.637016
21
533.203221
0
LINE
5
640
100
AcDbEntity
8
1
100
AcDbLine
6
DOT2
62
3
10
368.037016
20
541.574255
11
368.037016
21
533.203221
0
POLYLINE
5
641
100
AcDbEntity
8
1
6
DOT2
62
3
100
AcDb2dPolyline
66
1
10
0.0
20
0.0
30
0.0
70
0
0
VERTEX
5
642
100
AcDbEntity
8
1
100
AcDbVertex
100
AcDb2dVertex
62
3
10
376.903913
20
534.203221
0
VERTEX
5
643
100
AcDbEntity
8
1
100
AcDbVertex
100
AcDb2dVertex
62
3
10
368.037016
20
534.203221
0
VERTEX
5
644
100
AcDbEntity
8
1
100
AcDbVertex
100
AcDb2dVertex
62
3
10
371.085016
20
534.711221
0
VERTEX
5
645
100
AcDbEntity
8
1
100
AcDbVertex
100
AcDb2dVertex
62
3
10
371.085016
20
533.695221
0
VERTEX
5
646
100
AcDbEntity
8
1
100
AcDbVertex
100
AcDb2dVertex
62
3
10
368.037016
20
534.203221
0
VERTEX
5
647
100
AcDbEntity
8
1
100
AcDbVertex
100
AcDb2dVertex
62
3
10
371.085016
20
534.457221
0
VERTEX
5
648
100
AcDbEntity
8
1
100
AcDbVertex
100
AcDb2dVertex
62
3
10
371.085016
20
533.949221
0
VERTEX
5
649
100
AcDbEntity
8
1
100
AcDbVertex
100
AcDb2dVertex
62
3
10
368.037016
20
534.203221
0
SEQEND
5
64a
100
AcDbEntity
8
1
0
LINE
5
64b
100
AcDbEntity
8
1
100
AcDbLine
6
DOT2
62
3
10
368.037016
20
534.203221
11
365.637016
21
534.203221
0
POLYLINE
5
64c
100
AcDbEntity
8
1
6
DOT2
62
3
100
AcDb2dPolyline
66
1
10
0.0
20
0.0
30
0.0
70
0
0
VERTEX
5
64d
100
AcDbEntity
8
1
100
AcDbVertex
100
AcDb2dVertex
62
3
10
360.589016
20
534.203221
0
VERTEX
5
64e
100
AcDbEntity
8
1
100
AcDbVertex
100
AcDb2dVertex
62
3
10
365.637016
20
534.203221
0
VERTEX
5
64f
100
AcDbEntity
8
1
100
AcDbVertex
100
AcDb2dVertex
62
3
10
362.589016
20
533.695221
0
VERTEX
5
650
100
AcDbEntity
8
1
100
AcDbVertex
100
AcDb2dVertex
62
3
10
362.589016
20
534.711221
0
VERTEX
5
651
100
AcDbEntity
8
1
100
AcDbVertex
100
AcDb2dVertex
62
3
10
365.637016
20
534.203221
0
VERTEX
5
652
100
AcDbEntity
8
1
100
AcDbVertex
100
AcDb2dVertex
62
3
10
362.589016
20
533.949221
0
VERTEX
5
653
100
AcDbEntity
8
1
100
AcDbVertex
100
AcDb2dVertex
62
3
10
362.589016
20
534.457221
0
VERTEX
5
654
100
AcDbEntity
8
1
100
AcDbVertex
100
AcDb2dVertex
62
3
10
365.637016
20
534.203221
0
SEQEND
5
655
100
AcDbEntity
8
1
0
TEXT
5
656
100
AcDbEntity
8
1
62
3
100
AcDbText
10
372.784713
20
534.903621
40
3.200000
41
0.825
1
12
7
STANDARD
72
0
100
AcDbText
0
LINE
5
657
100
AcDbEntity
8
0
100
AcDbLine
6
DOT2
62
3
10
381.437004
20
470.336833
11
381.437004
21
441.463264
0
LINE
5
658
100
AcDbEntity
8
0
100
AcDbLine
6
DOT2
62
3
10
350.837016
20
478.583609
11
350.837016
21
441.463264
0
POLYLINE
5
659
100
AcDbEntity
8
0
6
DOT2
62
3
100
AcDb2dPolyline
66
1
10
0.0
20
0.0
30
0.0
70
0
0
VERTEX
5
65a
100
AcDbEntity
8
0
100
AcDbVertex
100
AcDb2dVertex
62
3
10
370.998671
20
442.463264
0
VERTEX
5
65b
100
AcDbEntity
8
0
100
AcDbVertex
100
AcDb2dVertex
62
3
10
350.837016
20
442.463264
0
VERTEX
5
65c
100
AcDbEntity
8
0
100
AcDbVertex
100
AcDb2dVertex
62
3
10
353.885016
20
442.971264
0
VERTEX
5
65d
100
AcDbEntity
8
0
100
AcDbVertex
100
AcDb2dVertex
62
3
10
353.885016
20
441.955264
0
VERTEX
5
65e
100
AcDbEntity
8
0
100
AcDbVertex
100
AcDb2dVertex
62
3
10
350.837016
20
442.463264
0
VERTEX
5
65f
100
AcDbEntity
8
0
100
AcDbVertex
100
AcDb2dVertex
62
3
10
353.885016
20
442.717264
0
VERTEX
5
660
100
AcDbEntity
8
0
100
AcDbVertex
100
AcDb2dVertex
62
3
10
353.885016
20
442.209264
0
VERTEX
5
661
100
AcDbEntity
8
0
100
AcDbVertex
100
AcDb2dVertex
62
3
10
350.837016
20
442.463264
0
SEQEND
5
662
100
AcDbEntity
8
0
0
POLYLINE
5
663
100
AcDbEntity
8
0
6
DOT2
62
3
100
AcDb2dPolyline
66
1
10
0.0
20
0.0
30
0.0
70
0
0
VERTEX
5
664
100
AcDbEntity
8
0
100
AcDbVertex
100
AcDb2dVertex
62
3
10
370.998671
20
442.463264
0
VERTEX
5
665
100
AcDbEntity
8
0
100
AcDbVertex
100
AcDb2dVertex
62
3
10
381.437004
20
442.463264
0
VERTEX
5
666
100
AcDbEntity
8
0
100
AcDbVertex
100
AcDb2dVertex
62
3
10
378.389004
20
441.955264
0
VERTEX
5
667
100
AcDbEntity
8
0
100
AcDbVertex
100
AcDb2dVertex
62
3
10
378.389004
20
442.971264
0
VERTEX
5
668
100
AcDbEntity
8
0
100
AcDbVertex
100
AcDb2dVertex
62
3
10
381.437004
20
442.463264
0
VERTEX
5
669
100
AcDbEntity
8
0
100
AcDbVertex
100
AcDb2dVertex
62
3
10
378.389004
20
442.209264
0
VERTEX
5
66a
100
AcDbEntity
8
0
100
AcDbVertex
100
AcDb2dVertex
62
3
10
378.389004
20
442.717264
0
VERTEX
5
66b
100
AcDbEntity
8
0
100
AcDbVertex
100
AcDb2dVertex
62
3
10
381.437004
20
442.463264
0
SEQEND
5
66c
100
AcDbEntity
8
0
0
TEXT
5
66d
100
AcDbEntity
8
0
62
3
100
AcDbText
10
368.289551
20
443.163664
40
3.200000
41
0.825
1
153
7
STANDARD
72
0
100
AcDbText
0
LINE
5
66e
100
AcDbEntity
8
1
100
AcDbLine
6
DOT2
62
3
10
366.837009
20
466.583614
11
366.837009
21
434.063264
0
LINE
5
66f
100
AcDbEntity
8
1
100
AcDbLine
6
DOT2
62
3
10
393.836999
20
466.583614
11
393.836999
21
434.063264
0
POLYLINE
5
670
100
AcDbEntity
8
1
6
DOT2
62
3
100
AcDb2dPolyline
66
1
10
0.0
20
0.0
30
0.0
70
0
0
VERTEX
5
671
100
AcDbEntity
8
1
100
AcDbVertex
100
AcDb2dVertex
62
3
10
380.430256
20
435.063264
0
VERTEX
5
672
100
AcDbEntity
8
1
100
AcDbVertex
100
AcDb2dVertex
62
3
10
366.837009
20
435.063264
0
VERTEX
5
673
100
AcDbEntity
8
1
100
AcDbVertex
100
AcDb2dVertex
62
3
10
369.885009
20
435.571264
0
VERTEX
5
674
100
AcDbEntity
8
1
100
AcDbVertex
100
AcDb2dVertex
62
3
10
369.885009
20
434.555264
0
VERTEX
5
675
100
AcDbEntity
8
1
100
AcDbVertex
100
AcDb2dVertex
62
3
10
366.837009
20
435.063264
0
VERTEX
5
676
100
AcDbEntity
8
1
100
AcDbVertex
100
AcDb2dVertex
62
3
10
369.885009
20
435.317264
0
VERTEX
5
677
100
AcDbEntity
8
1
100
AcDbVertex
100
AcDb2dVertex
62
3
10
369.885009
20
434.809264
0
VERTEX
5
678
100
AcDbEntity
8
1
100
AcDbVertex
100
AcDb2dVertex
62
3
10
366.837009
20
435.063264
0
SEQEND
5
679
100
AcDbEntity
8
1
0
POLYLINE
5
67a
100
AcDbEntity
8
1
6
DOT2
62
3
100
AcDb2dPolyline
66
1
10
0.0
20
0.0
30
0.0
70
0
0
VERTEX
5
67b
100
AcDbEntity
8
1
100
AcDbVertex
100
AcDb2dVertex
62
3
10
380.430256
20
435.063264
0
VERTEX
5
67c
100
AcDbEntity
8
1
100
AcDbVertex
100
AcDb2dVertex
62
3
10
393.836999
20
435.063264
0
VERTEX
5
67d
100
AcDbEntity
8
1
100
AcDbVertex
100
AcDb2dVertex
62
3
10
390.788999
20
434.555264
0
VERTEX
5
67e
100
AcDbEntity
8
1
100
AcDbVertex
100
AcDb2dVertex
62
3
10
390.788999
20
435.571264
0
VERTEX
5
67f
100
AcDbEntity
8
1
100
AcDbVertex
100
AcDb2dVertex
62
3
10
393.836999
20
435.063264
0
VERTEX
5
680
100
AcDbEntity
8
1
100
AcDbVertex
100
AcDb2dVertex
62
3
10
390.788999
20
434.809264
0
VERTEX
5
681
100
AcDbEntity
8
1
100
AcDbVertex
100
AcDb2dVertex
62
3
10
390.788999
20
435.317264
0
VERTEX
5
682
100
AcDbEntity
8
1
100
AcDbVertex
100
AcDb2dVertex
62
3
10
393.836999
20
435.063264
0
SEQEND
5
683
100
AcDbEntity
8
1
0
TEXT
5
684
100
AcDbEntity
8
1
62
3
100
AcDbText
10
377.721136
20
435.763664
40
3.200000
41
0.825
1
135
7
STANDARD
72
0
100
AcDbText
0
LINE
5
685
100
AcDbEntity
8
1
100
AcDbLine
6
DOT2
62
3
10
360.837012
20
466.583614
11
360.837012
21
426.663264
0
LINE
5
686
100
AcDbEntity
8
1
100
AcDbLine
6
DOT2
62
3
10
399.836996
20
466.583614
11
399.836996
21
426.663264
0
POLYLINE
5
687
100
AcDbEntity
8
1
6
DOT2
62
3
100
AcDb2dPolyline
66
1
10
0.0
20
0.0
30
0.0
70
0
0
VERTEX
5
688
100
AcDbEntity
8
1
100
AcDbVertex
100
AcDb2dVertex
62
3
10
381.065256
20
427.663264
0
VERTEX
5
689
100
AcDbEntity
8
1
100
AcDbVertex
100
AcDb2dVertex
62
3
10
360.837012
20
427.663264
0
VERTEX
5
68a
100
AcDbEntity
8
1
100
AcDbVertex
100
AcDb2dVertex
62
3
10
363.885012
20
428.171264
0
VERTEX
5
68b
100
AcDbEntity
8
1
100
AcDbVertex
100
AcDb2dVertex
62
3
10
363.885012
20
427.155264
0
VERTEX
5
68c
100
AcDbEntity
8
1
100
AcDbVertex
100
AcDb2dVertex
62
3
10
360.837012
20
427.663264
0
VERTEX
5
68d
100
AcDbEntity
8
1
100
AcDbVertex
100
AcDb2dVertex
62
3
10
363.885012
20
427.917264
0
VERTEX
5
68e
100
AcDbEntity
8
1
100
AcDbVertex
100
AcDb2dVertex
62
3
10
363.885012
20
427.409264
0
VERTEX
5
68f
100
AcDbEntity
8
1
100
AcDbVertex
100
AcDb2dVertex
62
3
10
360.837012
20
427.663264
0
SEQEND
5
690
100
AcDbEntity
8
1
0
POLYLINE
5
691
100
AcDbEntity
8
1
6
DOT2
62
3
100
AcDb2dPolyline
66
1
10
0.0
20
0.0
30
0.0
70
0
0
VERTEX
5
692
100
AcDbEntity
8
1
100
AcDbVertex
100
AcDb2dVertex
62
3
10
381.065256
20
427.663264
0
VERTEX
5
693
100
AcDbEntity
8
1
100
AcDbVertex
100
AcDb2dVertex
62
3
10
399.836996
20
427.663264
0
VERTEX
5
694
100
AcDbEntity
8
1
100
AcDbVertex
100
AcDb2dVertex
62
3
10
396.788996
20
427.155264
0
VERTEX
5
695
100
AcDbEntity
8
1
100
AcDbVertex
100
AcDb2dVertex
62
3
10
396.788996
20
428.171264
0
VERTEX
5
696
100
AcDbEntity
8
1
100
AcDbVertex
100
AcDb2dVertex
62
3
10
399.836996
20
427.663264
0
VERTEX
5
697
100
AcDbEntity
8
1
100
AcDbVertex
100
AcDb2dVertex
62
3
10
396.788996
20
427.409264
0
VERTEX
5
698
100
AcDbEntity
8
1
100
AcDbVertex
100
AcDb2dVertex
62
3
10
396.788996
20
427.917264
0
VERTEX
5
699
100
AcDbEntity
8
1
100
AcDbVertex
100
AcDb2dVertex
62
3
10
399.836996
20
427.663264
0
SEQEND
5
69a
100
AcDbEntity
8
1
0
TEXT
5
69b
100
AcDbEntity
8
1
62
3
100
AcDbText
10
378.356136
20
428.363664
40
3.200000
41
0.825
1
195
7
STANDARD
72
0
100
AcDbText
0
LINE
5
69c
100
AcDbEntity
8
1
100
AcDbLine
6
DOT2
62
3
10
350.837016
20
478.583609
11
350.837016
21
434.063264
0
LINE
5
69d
100
AcDbEntity
8
1
100
AcDbLine
6
DOT2
62
3
10
366.837009
20
466.583614
11
366.837009
21
434.063264
0
POLYLINE
5
69e
100
AcDbEntity
8
1
6
DOT2
62
3
100
AcDb2dPolyline
66
1
10
0.0
20
0.0
30
0.0
70
0
0
VERTEX
5
69f
100
AcDbEntity
8
1
100
AcDbVertex
100
AcDb2dVertex
62
3
10
357.930266
20
435.063264
0
VERTEX
5
6a0
100
AcDbEntity
8
1
100
AcDbVertex
100
AcDb2dVertex
62
3
10
350.837016
20
435.063264
0
VERTEX
5
6a1
100
AcDbEntity
8
1
100
AcDbVertex
100
AcDb2dVertex
62
3
10
353.885016
20
435.571264
0
VERTEX
5
6a2
100
AcDbEntity
8
1
100
AcDbVertex
100
AcDb2dVertex
62
3
10
353.885016
20
434.555264
0
VERTEX
5
6a3
100
AcDbEntity
8
1
100
AcDbVertex
100
AcDb2dVertex
62
3
10
350.837016
20
435.063264
0
VERTEX
5
6a4
100
AcDbEntity
8
1
100
AcDbVertex
100
AcDb2dVertex
62
3
10
353.885016
20
435.317264
0
VERTEX
5
6a5
100
AcDbEntity
8
1
100
AcDbVertex
100
AcDb2dVertex
62
3
10
353.885016
20
434.809264
0
VERTEX
5
6a6
100
AcDbEntity
8
1
100
AcDbVertex
100
AcDb2dVertex
62
3
10
350.837016
20
435.063264
0
SEQEND
5
6a7
100
AcDbEntity
8
1
0
POLYLINE
5
6a8
100
AcDbEntity
8
1
6
DOT2
62
3
100
AcDb2dPolyline
66
1
10
0.0
20
0.0
30
0.0
70
0
0
VERTEX
5
6a9
100
AcDbEntity
8
1
100
AcDbVertex
100
AcDb2dVertex
62
3
10
357.930266
20
435.063264
0
VERTEX
5
6aa
100
AcDbEntity
8
1
100
AcDbVertex
100
AcDb2dVertex
62
3
10
366.837009
20
435.063264
0
VERTEX
5
6ab
100
AcDbEntity
8
1
100
AcDbVertex
100
AcDb2dVertex
62
3
10
363.789009
20
434.555264
0
VERTEX
5
6ac
100
AcDbEntity
8
1
100
AcDbVertex
100
AcDb2dVertex
62
3
10
363.789009
20
435.571264
0
VERTEX
5
6ad
100
AcDbEntity
8
1
100
AcDbVertex
100
AcDb2dVertex
62
3
10
366.837009
20
435.063264
0
VERTEX
5
6ae
100
AcDbEntity
8
1
100
AcDbVertex
100
AcDb2dVertex
62
3
10
363.789009
20
434.809264
0
VERTEX
5
6af
100
AcDbEntity
8
1
100
AcDbVertex
100
AcDb2dVertex
62
3
10
363.789009
20
435.317264
0
VERTEX
5
6b0
100
AcDbEntity
8
1
100
AcDbVertex
100
AcDb2dVertex
62
3
10
366.837009
20
435.063264
0
SEQEND
5
6b1
100
AcDbEntity
8
1
0
TEXT
5
6b2
100
AcDbEntity
8
1
62
3
100
AcDbText
10
356.309146
20
435.763664
40
3.200000
41
0.825
1
80
7
STANDARD
72
0
100
AcDbText
0
ENDSEC
0
SECTION
2
OBJECTS
0
DICTIONARY
5
6b3
100
AcDbDictionary
3
ACAD_GROUP
350
6b4
3
ACAD_MLINESTYLE
350
6b5
0
DICTIONARY
5
6b4
102
{ACAD_REACTORS
330
6b3
102
}
100
AcDbDictionary
0
DICTIONARY
5
6b5
102
{ACAD_REACTORS
330
6b3
102
}
100
AcDbDictionary
3
STANDARD
350
6b6
0
MLINESTYLE
5
6b6
102
{ACAD_REACTORS
330
6b5
102
}
100
AcDbMlineStyle
2
STANDARD
70
0
3

62
0
51
90.0
52
90.0
71
2
49
0.5
62
256
6
BYLAYER
49
-0.5
62
256
6
BYLAYER
0
ENDSEC
0
EOF
